Oops, an error
Loading. Please wait.

One Emotion Bass Tab

516 views 1 this week
1 commentread comment
1 2 3 4 5
please rate
add to favorites
launch autoscroll
font size
0
reset
guitar tuner
Tab Pro tools
  • play this tab
  • loop segment
  • change instrument
  • show fretboard
  • metronome
×
Best way to learn
"One Emotion"
Autoscroll
slow
fast
+/-
esc
set tempo
stop
Contributor
Intro
G--------------------------------------------|
D-----------------------4-7-4---2-5-2-0------|
A----55-3-2-0----2-5-2-5-------3-------------|
E-33-----------3-------------------------33--|

Verse
G------------------------------------|
D---------------5-7-5-----4-2-0----5-|
A----5-7-5--33---------22-------3----|
E-33------------------------------3--|

Pre-Chorus
G----------------------|
D----------------------|
A----------------------|
E--333--111--333--000--|

Chorus
G------------------------------------------------------------------|
D----------------------------22-33-44----44-55-66------------------|
A--3333--------3333--------33----------55-----------22-33-44-55----|
E--------3333--------3333-------------------------33------------3--|

Bridge
G----------------------------------------|
D----------------------------------------|
A-----0-1-2-3--55-5-6-7-9-7--1-1--00-----|
E--33--------------------------------33--

********

Very Very Rough, But it's the thought that counts
comments
We did not receive enough feedback on this tab! Please rate:
print report bad tab
1 2 3 4 5
1 comment total.
0 reply
ripjoestrummer wrote on October 1 2009, 11:35 am

You must be playing on an out of tune bass...

I want to post or [tab]
guest
You may want to rate the tab now too:
select rating
Please do not post tabs as comments. Select "correction" instead!