Oops, an error
Loading. Please wait.

Overpowered By Funk Bass Tab

1,675 views 3 this week
no commentswrite comment
1 2 3 4 5
please rate
add to favorites
launch autoscroll
font size
0
reset
guitar tuner
Tab Pro tools
  • play this tab
  • loop segment
  • change instrument
  • show fretboard
  • metronome
Autoscroll
slow
fast
+/-
esc
set tempo
stop
Contributor
Intro
G-------------------------|
D--14--14--14--14--14--14-|
A-------------------------|
E-------------------------|

Verse 1
G-----------------------------|--------------------------------|
D--12-14----------------------|--12-14-14----------------------|
A--------10-10-10-10-10-10----|-----------10-10-10-10-10-10----|
E--------------------------12-|-----------------------------12-|

Bride
G---------------------------|-------------12----|
D--15--15--15--15--15--15-15|-15-15-15-15----15-|
A---------------------------|-------------------|
E---------------------------|-------------------|

Chorus
G-----------------------|--------------|-----------------|
D-13-13-----------------|-7-5----------|-----------4-----|
A-------13-11-----------|-----7-5------|-----4-------7-4-|
E--------------13-12-11-|--------7-6-5-|-4-5---7-5-------|

Verse 2
G--------------------|----------------|
D--------------------|----------------|
A-7-7-7-7-7--9-7-9-7-|-7-5---5-7--9-7-|
E--------------------|-----7----------|

Order:
Intro
Verse 1 x6
Bridge

Verse 1 x2
Chorus
Verse 1 x2
Chorus
Verse 2
Verse 1 x4
Bridge

Verse 1 x2
Chorus
Verse 1 x2
Chorus
Verse 2
Verse 1 x4
Chorus
Verse 1 x2
Chorus
Verse 2 (repeat) 
Verse 1 
Verse 2 
comments
We did not receive enough feedback on this tab! Please rate:
print report bad tab
1 2 3 4 5
I want to post or [tab]
guest
You may want to rate the tab now too:
select rating
Please do not post tabs as comments. Select "correction" instead!