Oops, an error
Loading. Please wait.

Police And Thieves Bass Tab

version 1
version 1

Whole song

Interactive

27,138 views 48 this week
2 commentsread comments
1 2 3 4 5
excellent!
x 16
add to favorites
launch autoscroll
font size
0
reset
guitar tuner
Tab Pro tools
  • play this tab
  • loop segment
  • change instrument
  • show fretboard
  • metronome
×
Best way to learn
"Police And Thieves"
Autoscroll
slow
fast
+/-
esc
set tempo
stop
Police and Thieves Bass Tablature
by the clash

Transcribed by Gilles Velay (velay@suisse.far.cea.fr)

Notation :
	w : whole	||: repeat
  	h : half	R : rest		
	q : quarter	\ : slide down		
	e : 8th		/ : slide up
	s : 16th	^ : triplet
	

Intro
===== 
     q ^e e^e^e q   q [x3] w                 w                w             [x4]
G-||-------------------||----------------||-----------------|----------------||
D-||*-------4-2-------*||----------------||*----------------|---------------*||
A-||*-----------3---5-*||----------------||*-R--------------|-R-------------*||
E-||-3--3-3------------||--3-------------||-----------------|----------------||
     slow                                   faster (drums then guitars enter)

 
Verses, Guitar Solo and Outro 
=============================              
    e e e e q   q      q+e   e q   q      e  e e e q  q     q+e   e q   q     
G-|------------------|------------------|-----------------|-------------------|
D-|-5-------5--------|-------5----------|-7---------------|-------5-----------|
A-|---7-5-7-----R----|-R-------5---7----|---10-9-7-5--R---|-R-------5---7-----|
E-|------------------|------------------|-----------------|-------------------|
                                                                               

Chorus
======
[x3] h      e   q+e    h+e       e e e    h      e q+e      w
G-||-----------------|------------------|-----------------|------------------||
D-||-----------------|------------------|-----------------|------------------||
A-||-2------2-R------|-R---------2-3-5--|-0------0-R------|-R----------------||
E-||-----------------|------------------|-----------------|------------------||

    h       h          h       h          h      h          h        h
G-|------------------|------------------|-----------------|-------------------|
D-|---------2--------|-3-------5--------|--------4--------|-5--------7--------|
A-|-3----------------|------------------|-5---------------|-------------------|
E-|------------------|------------------|-----------------|-------------------|

comments
print report bad tab
2 comments total.
0 reply
johnnyP43 wrote on July 25 2009, 01:20 am

great tab you can also the verse like this
e e e e q e q q e e e e e e q q
G-----------------------------------------------
D-5-2-0-2-5-r---r--5-0-2-7-5-4-2-0-r---r-5-0-2--
A-----------------------------------------------
E-----------------------------------------------

0 reply
Garageking1479 wrote on April 27 2011, 10:59 pm

great tab, but i think that C in the chorus's second bar shoud be a C#

I want to post or [tab]
guest
You may want to rate the tab now too:
select rating
Please do not post tabs as comments. Select "correction" instead!