Oops, an error
Loading. Please wait.

Police On My Back Bass Tab

version 1
version 1

Whole song

Interactive

3,905 views 3 this week
1 commentread comment
1 2 3 4 5
worth learning
x 3
add to favorites
launch autoscroll
font size
0
reset
guitar tuner
Tab Pro tools
  • play this tab
  • loop segment
  • change instrument
  • show fretboard
  • metronome
Autoscroll
slow
fast
+/-
esc
set tempo
stop
Contributor
The Clash
Police on my back - Bass

-------------|---------------|-------------|-----------------
-------------|---------------|-------------|-----------------
-5-5-5-050---|-3-3-3-030-----|-------------|-----------------
-------------|---------------|-------------|-----------------

I've been running Monday, Tuesday .....................

-----------------|--------------|-----------------|-----------------
-----------------|--------------|-----------------|-----------------
---445566------- |---445566-----|---223344--------|---223344--------
-55--------------|-55-----------|-33--------------|-33--------------

The go back to the beginning.
comments
We did not receive enough feedback on this tab! Please rate:
print report bad tab
1 2 3 4 5
1 comment total.
0 reply
frenchabortion wrote on January 17 2008, 12:21 am

-------------|---------------|
-------------|---------------|
-5-5-5-050---|---------------|
-------------|-3-3-3-030
-----|

G here sounds more accurate

I want to post or [tab]
guest
You may want to rate the tab now too:
select rating
Please do not post tabs as comments. Select "correction" instead!