Oops, an error
Loading. Please wait.

Police On My Back Bass Tab

version 2
version 2

Whole song

Interactive

5,297 views 12 this week
no commentswrite comment
1 2 3 4 5
excellent!
x 9
add to favorites
launch autoscroll
font size
0
reset
guitar tuner
Tab Pro tools
  • play this tab
  • loop segment
  • change instrument
  • show fretboard
  • metronome
×
Best way to learn
"Police On My Back"
Autoscroll
slow
fast
+/-
esc
set tempo
stop
Contributor
Artist; The Clash                                                            [cLifFd!v3R]
Song; Police On My Back
Album; Sandinista(a triple album)
Bassist; Paul Simonon

I Noticed The Other Bass Tab For This Song
Was Not Correct So I Corrected It.

(Intro)     (0.02)
G]----------------|----------------|----------------|----------------|
D]----------------|----------------|----------------|-------------5-5|
A]5-5-5050--------|5-5-5050--------|5-5-5050--------|5-5-5050--------|
E]--------3-3-3030|--------3-3-3030|--------3-3-3030|--------3-3-3-3-|



(Verse)     (0.15)
G]----------------|----------------|----------------|----------------|
D]----------------|-------------5-5|----------------|----------------|
A]5-5-5050--------|5-5-5050--------|5-5-5050--------|5-5-5050--------|
E]--------3-3-3030|--------3-3-3-3-|--------3-3-3030|--------3-3-3030|

Note; I Don't No If It Adds The Extra Note Or Not So I Added Both Possibilities.
                                       \__________________
(Chorus x2)(0.28)                       \                 \
G]------------[--]--------[--]     G]----\---|--------|----\---|----------]
D]------------[x2]--------[x2] OR  D]-----\--|--------|-----\--|----------]
A]--445577----[--]--223355[--]     A]--445567|--445577|--223345|--223355--]
E]55----------[--]33------[--]     E]55------|55------|33------|33--------]

(Intro)    (0.42)
(Verse)    (0.55)
(Chorus x2)(1.08)
(Bridge)   (1.20)       -With The Wierd Sliding Bass-
G]--------4/7~----]
D]----44-5.-------]
A]5577------------]
E]----------------]
           (1.31)
G]7\--------------]
D]----------------]
A]----------------]
E]----------------]


(Intro)    (1.34)
(Verse)    (1.47)
(Chorus x2)(2.00)
(Pause)    (2.11)
G]------]
D]------]
A]3~----]
E]------]

(Outro) (2.16)(Fade Out)
G]----------------|----------------|
D]----------------|-------------5-5|
A]5-5-5050--------|5-5-5050--------|
E]--------3-3-3030|--------3-3-3-3-|

Enjoy Guys, Hope You Like The Tab :)
comments
print report bad tab
I want to post or [tab]
guest
You may want to rate the tab now too:
select rating
Please do not post tabs as comments. Select "correction" instead!