Oops, an error
Loading. Please wait.

Prisoner Bass Tab

866 views 1 this week
no commentswrite comment
1 2 3 4 5
please rate
add to favorites
launch autoscroll
font size
0
reset
guitar tuner
Tab Pro tools
  • play this tab
  • loop segment
  • change instrument
  • show fretboard
  • metronome
×
Best way to learn
"Prisoner"
Autoscroll
slow
fast
+/-
esc
set tempo
stop
THE CLASH - THE PRISONER
SUPER BLACK MARKET CLASH: 1993
TABBED BY: JOSH HUGHFF
TUNING: STANDARD E.A.D.G


INTRO: X4
      
G:|----------------|
D:|----------------|
A:|----------------|
E:|5-5555555555555-|

VERSE: PART 1: X2

G:|-----------------------------------|
D:|-----------------------------------|
A:|5-555555---------------------------|
E:|---------5-555555-3-333333-7---5---|

VERSE: PART 2
REPEAT 1ST BAR X3   4TH TIME PLAY THIS
G:|----------------|------------------------|
D:|----------------|------------------------|
A:|----------------|5-5-5-5-----------------|
E:|3-3-3-3-2-2-2-2-|--------5-5-5-5-5-5-5-5-|


VERSE: PART 1: X2

G:|-----------------------------------|
D:|-----------------------------------|
A:|5-555555---------------------------|
E:|---------5-555555-3-333333-7---5---|


VERSE: PART 2
REPEAT 1ST BAR X3    4TH TIME        WITH DRUMS
G:|----------------|----------------|--------|
D:|----------------|----------------|--------|
A:|----------------|5-5-5-5---------|--------|
E:|3-3-3-3-2-2-2-2-|--------5-5-5-5-|5--5--5-|

PRE CHORUS: 

G:|--------------|---------------------------------|--------|
D:|--------------|---------------------------------|--------|
A:|5---5-5-----5-|---------------------------------|--------|
E:|---------3----|5555555555555555-3333333333333333|3-5-7-8-|

CHORUS: X3

G:|------------------------------|
D:|------7-----------------5---4-|
A:|5-5-5-------------------------|
E:|--------7-7-7-7-3-3-3-3-------|
4TH TIME 
G:|--------------------------------|
D:|------7-------------------------|
A:|5-5-5---------------------------|
E:|--------7-7-7-7-3-3-3-3-3-3-3-3-|

INTRO: X4
      
G:|----------------|
D:|----------------|
A:|----------------|
E:|5-5555555555555-|


VERSE: PART 1: X2

G:|-----------------------------------|
D:|-----------------------------------|
A:|5-555555---------------------------|
E:|---------5-555555-3-333333-7---5---|


VERSE: PART 2
REPEAT 1ST BAR X3    4TH TIME        WITH DRUMS
G:|----------------|----------------|--------|
D:|----------------|----------------|--------|
A:|----------------|5-5-5-5---------|--------|
E:|3-3-3-3-2-2-2-2-|--------5-5-5-5-|5--5--5-|

PRE CHORUS: 

G:|--------------|---------------------------------|--------|
D:|--------------|---------------------------------|--------|
A:|5---5-5-----5-|---------------------------------|--------|
E:|---------3----|5555555555555555-3333333333333333|3-5-7-8-|

CHORUS: X3

G:|------------------------------|
D:|------7-----------------5---4-|
A:|5-5-5-------------------------|
E:|--------7-7-7-7-3-3-3-3-------|
4TH TIME 
G:|--------------------------------|
D:|------7-------------------------|
A:|5-5-5---------------------------|
E:|--------7-7-7-7-3-3-3-3-3-3-3-3-|

END: PART 1 
REPEAT THIS X3        4TH TIME             
G:|------------------|-----------------|
D:|------------------|-----------------|  X2
A:|---------77777777-|-----------------|
E:|55555555----------|7777777777777777-|

END: PART 2 
REPEAT X4
G:|----------------|
D:|----------------|
A:|----------------|
E:|5-5555555555555-|

THATS IT. MY FIRST TAB.

RED ARMY PUNX
comments
We did not receive enough feedback on this tab! Please rate:
print report bad tab
1 2 3 4 5
I want to post or [tab]
guest
You may want to rate the tab now too:
select rating
Please do not post tabs as comments. Select "correction" instead!