Oops, an error
Loading. Please wait.

Remote Control Bass Tab

version 1
version 1

Whole song

Interactive

2,002 views 6 this week
no commentswrite comment
1 2 3 4 5
worth learning
x 3
add to favorites
launch autoscroll
font size
0
reset
guitar tuner
Tab Pro tools
  • play this tab
  • loop segment
  • change instrument
  • show fretboard
  • metronome
Autoscroll
slow
fast
+/-
esc
set tempo
stop
THE CLASH- REMOTE CONTROL
CD: The Clash (U.S. Track Listing) 1979
ARTIST: The Clash
TABBED BY: Fecker 8
BASSIST: Paul Simonon

INTRO

G:|----------------|----------------|
D:|----------------|----------------|
A:|5-5-000-----555-|5-5-000---------|
E:|--------3-3-----|--------3-3-----|


VERSE

Play this twice

G:|----------------|----------------|----------------|
D:|----------------|---------5------|----------------|
A:|5-55-55-4-44-44-|-----------02345|----0-2-3-4-----|
E:|----------------|2---------------|----------------|

G:|----------------|----------------|----------------|
D:|----------------|----------------|----------------|
A:|5-55-55---------|5-55-55-5-------|55443322--------|
E:|--------3-33-33-|----------------|--------55442200|


CHORUS
                             Ending One           Ending Two
G:|----------------|      G:|----------------| G:|----------------|
D:|----------------|X2    D:|----------------| D:|----------------|
A:|----3-5---------|      A:|----3-5---------| A:|----3-5-7---5---|
E:|3-------5-------|      E:|3-------5-------| E:|3---------------|


BRIDGE

G:|----------------|
D:|----------------|
A:|55443322--------|
E:|--------55442200|


VERSE 2

Play this twice

G:|----------------|----------------|----------------|
D:|----------------|---------5------|----------------|
A:|5-55-55-4-44-44-|-----------02345|----0-2-3-4-----|
E:|----------------|2---------------|----------------|

G:|----------------|----------------|----------------|
D:|----------------|----------------|----------------|
A:|5-55-55---------|5-55-55-5-------|55443322--------|
E:|--------3-33-33-|----------------|--------55442200|


CHORUS
                             Ending One           Ending Two
G:|----------------|      G:|----------------| G:|----------------|
D:|----------------|X2    D:|----------------| D:|----------------|
A:|----3-5---------|      A:|----3-5---------| A:|----3-5-7---5---|
E:|3-------5-------|      E:|3-------5-------| E:|3---------------|


BRIDGE

G:|----------------|----------------|
D:|----------------|----------------|
A:|55443322--------|55443322--------|
E:|--------55442200|--------55442200|


GUITAR SOLO

G:|----------------|
D:|----------------|
A:|3h5-------------|x4
E:|----------------|

G:|----------------|----------------|
D:|----------------|----------------|
A:|5-55-55-4-44-44-|----------0-2-4-|
E:|----------------|2-22-22-2-------|

G:|----------------|----------------|----------------|
D:|----------------|----------------|----------------|
A:|5-55-55---------|5-55-55-5-------|55443322--------|
E:|--------3-33-33-|----------------|--------55442200|


VERSE 3

Play this twice

G:|----------------|----------------|----------------|
D:|----------------|---------5------|----------------|
A:|5-55-55-4-44-44-|-----------02345|----0-2-3-4-----|
E:|----------------|2---------------|----------------|

G:|----------------|----------------|----------------|
D:|----------------|----------------|----------------|
A:|5-55-55---------|5-55-55-5-------|55443322--------|
E:|--------3-33-33-|----------------|--------55442200|


BRIDGE

G:|----------------|----------------|
D:|----------------|----------------|x4
A:|5-55-55-0-00-00-|----------0-2-4-|
E:|----------------|3-33-33-3-------|


OUTRO

G:|----------------|
D:|----------------|
A:|5-5-000-----555-|x3
E:|--------3-3-----|

G:|----------------|
D:|----------------|*let last note ring
A:|5-5-000------5*-|
E:|--------3-33----|

If there are any problems with the tab, email me at fecker.8@gmail.com
comments
We did not receive enough feedback on this tab! Please rate:
print report bad tab
1 2 3 4 5
I want to post or [tab]
guest
You may want to rate the tab now too:
select rating
Please do not post tabs as comments. Select "correction" instead!