Oops, an error
Loading. Please wait.

Remote Control Bass Tab

version 2
version 2

Whole song

Interactive

79 views 1 this week
no commentswrite comment
1 2 3 4 5
please rate
add to favorites
launch autoscroll
font size
0
reset
guitar tuner
Tab Pro tools
  • play this tab
  • loop segment
  • change instrument
  • show fretboard
  • metronome
×
Best way to learn
"Remote Control"
Autoscroll
slow
fast
+/-
esc
set tempo
stop
Contributor
Difficulty
novice
Album: The Clash (U.S. Version)
Bassist: Paul Simonon
Tabbed By: beano311
Tuning: Standard 4-String (E,A,D,G)

   .  - Staccato note (play it short)

Intro:
0:00
   . .      . .       . .      . . 
G|---------------------------------|
D|---------------------------------|
A|-3-3-----------333--3-3----------|
E|-----333--1-1-----------333--1-1-|

Verse: (x2)
0:06
G|----------------------------|
D|----------------------------|
A|-3-33-333-2-22-222----------|
E|-------------------1-111111-|
                       ^rhythm is hard to hear
     .     . . . .
G|-----------------|
D|---3-------------|
A|-----023-----0-2-|
E|1---3----1-3-----|

   . . . .  . . . .  . . . .
G|---------------------------|
D|---------------------------|
A|-------------------0-0-0-0-|
E|-1-1-1-1--0-0-0-0----------|

G|-------------------------|
D|-------------------------|
A|-55-33-22-00-------------|
E|-------------33-11-00-11-|
 ^not sure about this line^

Chorus:
0:36
   . . .      . . .
G|--------------------|
D|--------------------|
A|---0-3--------0-3---|
E|-1-----3--0-1-----3-|
            ^ not sure about this note
     . . .      . . . .  .
G|-------------------------|
D|-------------------------|
A|-----0-3--------0-3----0-|
E|-0-1-----3--0-1-----3----|

G|-------------------------|
D|-------------------------|
A|-55-33-22-00-------------|
E|-------------33-11-00-11-|

Verse: (x2)
0:51

Chorus:
1:21 (Bass at 1:22)

Bridge:
1:36
G|-------------------------|
D|-------------------------|
A|-55-33-22-00-------------|
E|-------------33-11-00-11-|

G|--------------------|
D|--------------------|
A|-3h5--3h5--3h5--3h5-|
E|--------------------|

                           . . . .
G|---------------------------------|
D|---------------------------------|
A|-3-33-33-2-22-22-------------0-2-|
E|-----------------1-11-1111-3-----|

                           . . . .
G|---------------------------------|
D|---------------------------------|
A|-3-33-33-2-22-22-------------0-2-|
E|-----------------1-11-1111-3-----|

   . . . .  . . . .  . . . .
G|---------------------------|
D|---------------------------|
A|-------------------0-0-0-0-|
E|-1-1-1-1--0-0-0-0----------|

G|-------------------------|
D|-------------------------|
A|-55-33-22-00-------------|
E|-------------33-11-00-11-|

Verse:
2:05

Repression Part: (x4)
2:21
                            . . . .
G|----------------------------------|
D|----------------------------------|
A|-3-33-33-2-22-22--------------0-2-|
E|-----------------1-11-11--1-3-----|

Outro:
2:45
   . .      . .       . .      . .
G|--------------------------------------|
D|--------------------------------------|
A|-3-3-----------333--3-3-----------333-|
E|-----333--1-1-----------333--1-1------|

   . .      . .       . .      . 
G|---------------------------------|
D|---------------------------------|
A|-3-3-----------333--3-3--------3-|
E|-----333--1-1-----------333--1---|


Whole song is:
Intro.......x1
Verse.......x2
Chorus......x1
Verse.......x2
Chorus......x1
Bridge......x1
Verse.......x1
Repression..x4
Outro.......x1
comments
We did not receive enough feedback on this tab! Please rate:
print report bad tab
1 2 3 4 5
I want to post or [tab]
guest
You may want to rate the tab now too:
select rating
Please do not post tabs as comments. Select "correction" instead!