Oops, an error
Loading. Please wait.

Rock The Casbah Tab

version 1
version 1

Whole song

Interactive

49,420 views 117 this week
6 commentsread comments
1 2 3 4 5
not so good
x 10
add to favorites
launch autoscroll
font size
0
reset
how to read this tab
guitar tuner
Tab Pro tools
  • play this tab
  • loop segment
  • change instrument
  • show fretboard
  • metronome
Autoscroll
slow
fast
+/-
esc
set tempo
stop
Difficulty
novice
intro guitars 1 and 2(doubled)


e--5----5-5-5--7--5-------------7-------7--------------------------|
b--6----6-6-6--8--6-------------8-------9--------------------------|
g--5----5-5-5--7--5-------------7-------7--------------------------|
d-------------------------------9-------9--------------------------|
a------------------------------------------------------------------|
e------------------------------------------------------------------|

e--8---8---8---8---7--5---------7-------7--------------------------|
b--10--10--10--10--6--6---------8-------8--------------------------|
g--10--10--10--10--7--5---------7-------7--------------------------|
d-------------------------------9-------8--------------------------|
a------------------------------------------------------------------|
e------------------------------------------------------------------|

now the knig told the boogie men....
guitars tacet


you have to let that ragga drop........

guitar 1

e----13----------------b22-----------------------|
b---------15-------------------------------------|
g------------------------------------------------|
d------------------------------------------------|
a------------------------------------------------|
e------------------------------------------------|

guitar 2

e-----------0--0-2-1-0-----------------------------|
b--------------------------------------------------|
g----b4--------------------------------------------|
d--------------------------------------------------|
a--------------------------------------------------|
e--------------------------------------------------|

got his guitar picking thumb.....

e---------------------------------------------------|
b---------------------------------------------------|
g---------------------------------------------------|
d----5/7---------5/7----5\2-------------------------|
a---------------------------------------------------|
e---------------------------------------------------|


and the temple took five....

e-----------17--------17-----------------------------|
b------17------------------17------------------------|
g----------------------------------------------------|
d----------------------------------------------------|
a----------------------------------------------------|
e----------------------------------------------------|

thats it enjoy it if u have any questions write to myspace.com/clashfan1 or 
see yah
comments
print report bad tab
6 comments total. Showing first comments.
+1 reply
Mcut202 wrote on August 17 2006, 10:39 am

sounds off.

+1 reply
stratd00d wrote on August 5 2007, 01:03 pm

The tab wasn't accurate. It's in the wrong key.

0 reply
jacobjcnsleft wrote on September 27 2007, 03:41 am

yeah suck on that unregistered

I want to post or [tab]
guest
You may want to rate the tab now too:
select rating
Please do not post tabs as comments. Select "correction" instead!