Oops, an error
Loading. Please wait.

Rock The Casbah Bass Tab

version 2
version 2

Whole song

Interactive

15,307 views 63 this week
1 commentread comment
1 2 3 4 5
excellent!
x 5
add to favorites
launch autoscroll
font size
0
reset
guitar tuner
Tab Pro tools
  • play this tab
  • loop segment
  • change instrument
  • show fretboard
  • metronome
×
Best way to learn
"Rock The Casbah"
Autoscroll
slow
fast
+/-
esc
set tempo
stop
Contributor
Difficulty
intermediate
-------------------------------------------------------------------------------
			           Rock The Casbah - The Clash
-------------------------------------------------------------------------------

Tuning: EADG

G|-------------12-10-|------------|------------|---------------|
D|----12-10-12-------|-7-77-5-5-5-|------------|---------------|
A|-------------------|------------|-7-77-8-8-8-|-7-77----------|
E|-10----------------|------------|------------|-------8-5-8-8-|

G|-------------12-10-|------------|------------|---------------|
D|----12-10-12-------|-7-77-5-5-5-|------------|---------------|
A|-------------------|------------|-7-77-8-8-8-|-7-77----------|
E|-10----------------|------------|------------|-------8-5-8---|

G|-------------|-------------|--------------|--------------|
D|-7------7----|-------------|-5------5-----|--------------|
A|-------------|-7------7----|--------------|-5-5-3-5-5----| x3
E|---5-5---5-5-|---0-0---0-0-|---3-3---3-3--|--------------|


G|---------------|---------------|---------|-------------|
D|-7----7--------|---------------|---------|-------------|
A|---------------|-7-----7-------|---------|-------------|
E|---5-5--5-5----|---0-0---0-0-0-|-1-1---1-|---0-1-0-1-0-|

G|-------------12-10-|------------|------------|---------------|
D|----12-10-12-------|-7-77-5-5-5-|------------|---------------|
A|-------------------|------------|-7-77-8-8-8-|-7-77----------|
E|-10----------------|------------|------------|-------8-5-8-8-|

G|-------------12-10-|------------|------------|---------------|
D|----12-10-12-------|-7-77-5-5-5-|------------|---------------|
A|-------------------|------------|-7-77-8-8-8-|-7-77----------|
E|-10----------------|------------|------------|-------8-5-8---|

G|-------------|-------------|--------------|--------------|
D|-7------7----|-------------|-5------5-----|--------------|
A|-------------|-7------7----|--------------|-5-5-3-5-5----| x3
E|---5-5---5-5-|---0-0---0-0-|---3-3---3-3--|--------------|


G|---------------|---------------|---------|-------------|
D|-7----7--------|---------------|---------|-------------|
A|---------------|-7-----7-------|---------|-------------|
E|---5-5--5-5----|---0-0---0-0-0-|-1-1---1-|---0-1-0-1-0-|

G|-------------12-10-|------------|------------|---------------|
D|----12-10-12-------|-7-77-5-5-5-|------------|---------------|
A|-------------------|------------|-7-77-8-8-8-|-7-77----------|
E|-10----------------|------------|------------|-------8-5-8-8-|

G|-------------12-10-|------------|------------|---------------|
D|----12-10-12-------|-7-77-5-5-5-|------------|---------------|
A|-------------------|------------|-7-77-8-8-8-|-7-77----------|
E|-10----------------|------------|------------|-------8-5-8---|


G|--------------|--------------|-----------------------------|
D|-7-----7------|-7------7-----|-7----7-------|-7-----7------|
A|--------------|--------------|--------------|--------------|
E|---5-5---5-5--|---5-5---5-5--|---5-5---5-5--|---5-5—--5-5--|

G|--------------|--------------|-----|-----------------------------|
D|-3-----3------|-3-----3------|-----|-3----3-------|-3-----3------|
A|--------------|--------------|-----|--------------|--------------|
E|---1-1---1-1--|---1-1---1-1--|--3--|---1-1---1-1--|---1-1—--1-1--|

G|-------------12-10-|------------|------------|---------------|
D|----12-10-12-------|-7-77-5-5-5-|------------|---------------|
A|-------------------|------------|-7-77-8-8-8-|-7-77----------|
E|-10----------------|------------|------------|-------8-5-8-8-|

G|-------------12-10-|------------|------------|---------------|
D|----12-10-12-------|-7-77-5-5-5-|------------|---------------|
A|-------------------|------------|-7-77-8-8-8-|-7-77----------|
E|-10----------------|------------|------------|-------8-5-8---|

G|-------------|-------------|--------------|--------------|
D|-7------7----|-------------|-5------5-----|--------------|
A|-------------|-7------7----|--------------|-5-5-3-5-5----| x3
E|---5-5---5-5-|---0-0---0-0-|---3-3---3-3--|--------------|


G|---------------|---------------|---------|-------------|
D|-7----7--------|---------------|---------|-------------|
A|---------------|-7-----7-------|---------|-------------|
E|---5-5--5-5----|---0-0---0-0-0-|-1-1---1-|---0-1-0-1-0-|

G|-------------12-10-|------------|------------|---------------|
D|----12-10-12-------|-7-77-5-5-5-|------------|---------------|
A|-------------------|------------|-7-77-8-8-8-|-7-77----------|
E|-10----------------|------------|------------|-------8-5-8-8-|


Play main riff* (^) until finish. 

*Listen to the track to get the right timing.

| /  slide up
| \  slide down
| h  hammer-on
| p  pull-off
| ~  vibrato
| +  harmonic
| x  Mute note
===============================================================================
comments
print report bad tab
1 comment total.
+1 reply
primus15 wrote on September 23 2009, 07:05 pm

the verse should be this:
G|----------------|---------------|----------------|----------------|
D|------7---------|--------------5|-------5-------5|---------------7|
A|---------------7|-------7-------|----------------|-5-5-5-3-5-5-5--|
E|-5-5-5---5-5-5--|-0-0-0---0-0-0-|-3-3-3---3-3-3--|----------------|

right notes, wrong rhythm; it would work, but i think this version sounds better.

chorus sounds perfect, though.

I want to post or [tab]
guest
You may want to rate the tab now too:
select rating
Please do not post tabs as comments. Select "correction" instead!