Oops, an error
Loading. Please wait.

Rudie Cant Fail Tab

version 2
version 2

Whole song

Interactive

21,133 views 22 this week
no commentswrite comment
1 2 3 4 5
excellent!
x 6
add to favorites
launch autoscroll
font size
0
reset
how to read this tab
guitar tuner
Tab Pro tools
  • play this tab
  • loop segment
  • change instrument
  • show fretboard
  • metronome
×
Best way to learn
"Rudie Cant Fail"
Autoscroll
slow
fast
+/-
esc
set tempo
stop
Contributor
Difficulty
novice
-------------------------------------------------------------------------------
                             Rudie Can't Fail - The Clash
-------------------------------------------------------------------------------
Tabbed by: Martin Powers
Email:m.pow@comcast.net

Tuning: Standard (eBGDAE)

Intro/Verse:
   Guitar 1:
    A             D A             G A             F#m
e|--5-55-55-5-55--5-5-55-55-5-55--3-5-55-55-5-55--2-2--|
B|--5-55-55-5-55--7-5-55-55-5-55--3-5-55-55-5-55--2-2--|
G|--6-66-66-6-66--7-6-66-66-6-66--4-6-66-66-6-66--2-2--|
D|--7-77-77-7-77--7-7-77-77-7-77--5-7-77-77-7-77--4-4--|
A|--7-77-77-7-77--5-7-77-77-7-77--5-7-77-77-7-77--4-4--|
E|--5-55-55-5-55----5-55-55-5-55--3-5-55-55-5-55--2-2--|
 |   Guitar 2:                 Listen for rhythm!      |
 |  A             D A             G A             F#m  |
e|--0-00-00-0-00--2-0-00-00-0-00--3-0-00-00-0-00--2-2--|
B|--2-22-22-2-22--3-2-22-22-2-22--0-2-22-22-2-22--2-2--|
G|--2-22-22-2-22--2-2-22-22-2-22--0-2-22-22-2-22--2-2--|
D|--2-22-22-2-22--0-2-22-22-2-22--0-2-22-22-2-22--4-4--|
A|--0-00-00-0-00----0-00-00-0-00--2-0-00-00-0-00--4-4--|
E|--------------------------------3---------------2-2--|

     Guitar 1:
e|-----------------------------------------------------|
B|-----------------------------------------------------|
G|-----------------------------------------------------|
D|-------4---------------4-----------------------------|
A|-----5-----4-7-4-----5-------------------------------|
E|-5-5-----5-------5-5-------5-5-----------------------|
 | 1 + 2 + 3 + 4 + 1 + 2 +   4 +                       |
 |   Guitar 2:                                         |
 |   A   D   A   E   A   D   A                         |
e|-x-5-x-5-x-5-x-7-x-5-x-5-x-5-5-----------------------|
B|-x-5-x-7-x-5-x-9-x-5-x-7-x-5-5-----------------------|
G|-x-6-x-7-x-6-x-9-x-6-x-7-x-6-6-----------------------|
D|-x-7-x-7-x-7-x-9-x-7-x-7-x-7-7-----------------------|
A|-x-7-x-5-x-7-x-7-x-7-x-5-x-7-7-----------------------|
E|-x-5-x---x-5-x---x-5-x---x-5-5-----------------------|
 |   Guitar 3:                                         |
 |   A   D   A   E   A   D   A                         |
e|-x-0-x-2-x-0-x-0-x-0-x-2-x-0-0-----------------------|
B|-x-2-x-3-x-2-x-0-x-2-x-3-x-2-2-----------------------|
G|-x-2-x-2-x-2-x-1-x-2-x-2-x-2-2-----------------------|
D|-x-2-x-0-x-2-x-2-x-2-x-0-x-2-2-----------------------|
A|-x-0-x---x-0-x-2-x-0-x---x-0-0-----------------------|
E|---------------0-------------------------------------|

Chorus:
   Guitar 1:
   A              E              F#m
e|-5-5-5-55-7-7-7-77-9--9--9--9-9--9--9--9--9-9--------|
B|-5-5-5-55-9-9-9-99-10-10-10-1010-10-10-10-1010-------|
G|-6-6-6-66-9-9-9-99-11-11-11-1111-11-11-11-1111-------|
D|-7-7-7-77-9-9-9-99-11-11-11-1111-11-11-11-1111-------|
A|-7-7-7-77-7-7-7-77-9--9--9--9-9--9--9--9--9-9--------|
E|-5-5-5-55--------------------------------------------|
 | 1 2 3 4+ 1 2 3 4+ 1  2  3  4 +  1  2  3  4 +        |
 |   Guitar 2:                                         |  X3
e|-0-0-0-00-0-0-0-00-2--2--2--2-2--2--2--2--2-2--------|
B|-2-2-2-22-0-0-0-00-2--2--2--2-2--2--2--2--2-2--------|
G|-2-2-2-22-1-1-1-11-2--2--2--2-2--2--2--2--2-2--------|
D|-2-2-2-22-2-2-2-22-4--4--4--4-4--4--4--4--4-4--------|
A|-0-0-0-00-2-2-2-22-4--4--4--4-4--4--4--4--4-4--------|
E|----------0-0-0-00-2--2--2--2-2--2--2--2--2-2--------|

     Guitar 1:
   D        E        A
e|-5-5-5-55-7-7-7-77-5---------------------------------|
B|-7-7-7-77-9-9-9-99-5---------------------------------|
G|-7-7-7-77-9-9-9-99-6---------------------------------|
D|-7-7-7-77-9-9-9-99-7---------------------------------|
A|-5-5-5-55-7-7-7-77-7---------------------------------|
E|-------------------5---------------------------------|
 | 1 2 3 4+ 1 2 3 4+ 1                                 |
 |   Guitar 2:                                         |  X1
e|-2-2-2-22-0-0-0-00-0---------------------------------|
B|-3-3-3-33-0-0-0-00-2---------------------------------|
G|-2-2-2-22-1-1-1-11-2---------------------------------|
D|-0-0-0-00-2-2-2-22-2---------------------------------|
A|----------2-2-2-22-0---------------------------------|
E|----------0-0-0-00-----------------------------------|
comments
print report bad tab
I want to post or [tab]
guest
You may want to rate the tab now too:
select rating
Please do not post tabs as comments. Select "correction" instead!