Oops, an error
Loading. Please wait.

Safe European Home Bass Tab

version 2
version 2

Whole song

Interactive

1,436 views 1 this week
1 commentread comment
1 2 3 4 5
worth learning
x 1
add to favorites
launch autoscroll
font size
0
reset
guitar tuner
Tab Pro tools
  • play this tab
  • loop segment
  • change instrument
  • show fretboard
  • metronome
Autoscroll
slow
fast
+/-
esc
set tempo
stop
Contributor
Verse
G--------------------------------------|
D-2-----------------2-----1-4----------|
A----------0-2--00-4----22-------------|
E---0-0000-----------------------------|

Chorus
G--------------------------------------|
D--------------------------------------|
A-----4-4-----------4-4--------2222----|
E-2-2-----0-0-1--2-2-----000000--------|

Bridge
G-----------------------------------------|
D-----------------------------------------|
A---------------0-0----------2020-0-------|
E-0---------4-4-------0-0-2-2------4---0--|

Outro
G--------------------|
D--------------------|
A----------00-000--0-|
E-00-0-44-4----------|
comments
We did not receive enough feedback on this tab! Please rate:
print report bad tab
1 2 3 4 5
1 comment total.
0 reply
Sam.C wrote on December 17 2009, 10:59 am

The Verse and bridge are a bit wrong, outro looks OK.
The Chorus goes like this:

Chorus
G-----------------------------------------------------|
D-----------------------------------------------------|
A-----44-44-00-00--2-2-22------4444444-0000000-2-2-2-2|
E-2-22--------------------2-22------------------------|

I want to post or [tab]
guest
You may want to rate the tab now too:
select rating
Please do not post tabs as comments. Select "correction" instead!