Oops, an error
Loading. Please wait.

Safe European Home Bass Tab

version 3
version 3

Whole song

Interactive

2,576 views 15 this week
no commentswrite comment
1 2 3 4 5
accurate
x 3
add to favorites
launch autoscroll
font size
0
reset
guitar tuner
Tab Pro tools
  • play this tab
  • loop segment
  • change instrument
  • show fretboard
  • metronome
×
Best way to learn
"Safe European Home"
Autoscroll
slow
fast
+/-
esc
set tempo
stop
The Clash
Safe European Home


Tabbed by: Punk Bass Dude


Intro/Verse:

G:-------------------------------------|
D:-------------6-9---------------------|
A:-677777776777--------4-4-7-----6-6-9-|
E:-----------------5-5-------7-7-------|

Chorus:

G:---------------------------------------|
D:---------------------------------------|
A:----------44444444-----4-4-7-----6-6-9-|
E:-22222222----------5-5-------7-7-------|

G:--------------------------------------|
D:--------------------------------------|
A:----------44444444-00000000-22222222--|
E:-22222222-----------------------------|

Bridge:

G:--------------------------------------------|
D:---------------------------3-3-6------------|
A:-----3-3-6------4-4-7--4-4------------1-1-4-|
E:-4-4-------5-5--------------------2-2-------|

G:--------------------------------------------|
D:--------------------------------------------|
A:-----6-6-9------4-4-7------6-6-9------4-4-7-|
E:-7-7--------5-5--------7-7--------5-5-------|

G:----------------------|
D:----------------------|
A:---------------4444-7-|
E:-44444444-5555--------|

Outro:
(This is the only part I'm not sure on because its hard to hear)

G:--------------------------------------|
D:--------------------------------------|
A:
E:
comments
We did not receive enough feedback on this tab! Please rate:
print report bad tab
1 2 3 4 5
I want to post or [tab]
guest
You may want to rate the tab now too:
select rating
Please do not post tabs as comments. Select "correction" instead!