Oops, an error
Loading. Please wait.
We have an official Should I Stay Or Should I Go tab made by UG professional guitarists. Check out the tab »
×
56,669 views 108 this week
2 commentsread comments
1 2 3 4 5
x 11
add to favorites
×
Save as Personal and add changes to this tab that will be seen only by you. Learn more ›
×
You can save this tab as Personal to edit and correct it or add notes. All changes will be seen only by you. Learn more »
launch autoscroll
font size
0
reset
guitar tuner
edit
Autoscroll
slow
fast
+/-
esc
set tempo
stop
Author
Difficulty
Should i stay or should i go by The Clash
tabbed by Pat Murphy (cashoo34@yahoo.com)
standard tuning

Сome in after guitar plays this


G|--------------------------|
D|--------------------------|
A|--5--5--5--------3--4--5--|
E|-----------3--3-----------|(x4)

G|-----------------------|
D|-----------------------|
A|-----------------------|
E|--3--3--3--1--1--1-2-3-|

G|--------------------------|
D|--------------------------|
A|--5--5--5--------3--4--5--|
E|-----------3--3-----------|

G|-----------------|
D|-----------------|
A|-5--5--5--5-5-5--|
E|-----------------|

G|--------------------------|
D|--------------------------|
A|--5--5--5--------3--4--5--|
E|-----------3--3-----------|(x3)

G|-----------------------|
D|-----------------------|
A|-----------------------|
E|--3--3--3--1--1--1-2-3-|

G|--------------------------|
D|--------------------------|
A|--5--5--5--------3--4--5--|
E|-----------3--3-----------|

G|-----------------|
D|-----------------|
A|-5--5--5--5-5-5--|
E|-----------------|

G|--------------------------|
D|--------------------------|
A|--5--5--5--------3--4--5--|
E|-----------3--3-----------|

G|-----------------------7-5------|
D|--------4-5-6-7------------7-5--|
A|-5--5-55---------5-5-55---------|
E|--------------------------------|(x2)

G|-----------------------|
D|-----------------------|
A|-----------------------|
E|-3-3-33-1-1-11-3-3-33--|

G|-----------------------7-5------|
D|--------4-5-6-7------------7-5--|
A|-5--5-55---------5-5-55---------|
E|--------------------------------|

G|-------------------|
D|-------------------|
A|--5-5-55-5-5-55-5--|
E|-------------------|

G|--------------------------|
D|--------------------------|
A|--5--5--5--------3--4--5--|
E|-----------3--3-----------|(x3)

G|-----------------------|
D|-----------------------|
A|-----------------------|
E|-3-3-33-1-1-11-3-3-33--|

G|--------------------------|
D|--------------------------|
A|--5--5--5--------3--4--5--|
E|-----------3--3-----------|

G|-------------------|
D|-------------------|
A|--5-5-55-5-5-55-5--|
E|-------------------|

G|--------------------------|
D|--------------------------|
A|--5--5--5--------3--4--5--|
E|-----------3--3-----------|(x3)

G|-----------------------|
D|-----------------------|
A|-----------------------|
E|-3-3-33-1-1-11-3-3-33--|

G|--------------------------|
D|--------------------------|
A|--5--5--5--------3--4--5--|
E|-----------3--3-----------|

G|-------------------|
D|-------------------|
A|--5-5-55-5-5-55-5--|
E|-------------------|


G|--------------------------|
D|--------------------------|
A|--5--5--5--------3--4--5--|
E|-----------3--3-----------|

G|-----------------------7-5------|
D|--------4-5-6-7------------7-5--|
A|-5--5-55---------5-5-55---------|
E|--------------------------------|(x2)

G|-----------------------|
D|-----------------------|
A|-----------------------|
E|-3-3-33-1-1-11-3-3-33--|

G|-----------------------7-5------|
D|--------4-5-6-7------------7-5--|
A|-5--5-55---------5-5-55---------|
E|--------------------------------|

G|-------------------|
D|-------------------|
A|--5-5-55-5-5-55-5--|
E|-------------------|

G|-----------------------7-5------|
D|--------4-5-6-7------------7-5--|
A|-5--5-55---------5-5-55---------|
E|--------------------------------|(x2)

G|-----------------------|
D|-----------------------|
A|-----------------------|
E|-3-3-33-1-1-11-3-3-33--|

G|-----------------------7-5------|
D|--------4-5-6-7------------7-5--|
A|-5--5-55---------5-5-55---------|
E|--------------------------------|

G|-------------------|
D|-------------------|
A|--5-5-55-5-5-55-5--|
E|-------------------|

G|--------------------------|
D|--------------------------|
A|--5--5--5--------3--4--5--|
E|-----------3--3-----------|
Suggest correction
Creating personal tab
Creating personal tab
You can edit any tab online and save it as your Personal.

You can edit, replace or remove any tab part or add personal notes – all changes will be seen only by you.

Personal tabs can be accessed anytime from any device, even offline.
Learn more »
comments
print report bad tab
2 comments total.
-2 reply
Phunk 72 Apr 16, 2007 09:30 AM

wrong

0 reply
frenchabortion 17,019 Jan 16, 2008 07:24 PM

no it's right

guest
You may want to rate the tab now too:
select rating
Wanna post a correction for this tab? Suggest correction