Oops, an error
Loading. Please wait.

Should I Stay Or Should I Go Bass Tab

version 2
version 2

Whole song

Interactive

46,373 views 114 this week
2 commentsread comments
1 2 3 4 5
accurate
x 9
add to favorites
launch autoscroll
font size
0
reset
guitar tuner
Tab Pro tools
  • play this tab
  • loop segment
  • change instrument
  • show fretboard
  • metronome
×
Best way to learn
"Should I Stay Or Should I Go"
Autoscroll
slow
fast
+/-
esc
set tempo
stop
Contributor
Difficulty
novice
Should i stay or should i go by The Clash
tabbed by Pat Murphy (cashoo34@yahoo.com)
standard tuning

come in after guitar plays this
G--------------------------|
D--------------------------|
A--5--5--5--------3--4--5--|x4
E-----------3--3-----------|

G-----------------------|
D-----------------------|
A-----------------------|
E--3--3--3--1--1--1-2-3-|

G--------------------------|
D--------------------------|
A--5--5--5--------3--4--5--|
E-----------3--3-----------|

G-----------------|
D-----------------|
A-5--5--5--5-5-5--|
E-----------------|

G--------------------------|
D--------------------------|
A--5--5--5--------3--4--5--|x3
E-----------3--3-----------|

G-----------------------|
D-----------------------|
A-----------------------|
E--3--3--3--1--1--1-2-3-|

G--------------------------|
D--------------------------|
A--5--5--5--------3--4--5--|
E-----------3--3-----------|

G-----------------|
D-----------------|
A-5--5--5--5-5-5--|
E-----------------|

G--------------------------|
D--------------------------|
A--5--5--5--------3--4--5--|
E-----------3--3-----------|

G-----------------------7-5------|
D--------4-5-6-7------------7-5--|
A-5--5-55---------5-5-55---------|x2
E--------------------------------|

G-----------------------|
D-----------------------|
A-----------------------|
E-3-3-33-1-1-11-3-3-33--|

G-----------------------7-5------|
D--------4-5-6-7------------7-5--|
A-5--5-55---------5-5-55---------|
E--------------------------------|

G-------------------|
D-------------------|
A--5-5-55-5-5-55-5--|
E-------------------|

G--------------------------|
D--------------------------|
A--5--5--5--------3--4--5--|x3
E-----------3--3-----------|

G-----------------------|
D-----------------------|
A-----------------------|
E-3-3-33-1-1-11-3-3-33--|

G--------------------------|
D--------------------------|
A--5--5--5--------3--4--5--|
E-----------3--3-----------|

G-------------------|
D-------------------|
A--5-5-55-5-5-55-5--|
E-------------------|

G--------------------------|
D--------------------------|
A--5--5--5--------3--4--5--|x3
E-----------3--3-----------|

G-----------------------|
D-----------------------|
A-----------------------|
E-3-3-33-1-1-11-3-3-33--|

G--------------------------|
D--------------------------|
A--5--5--5--------3--4--5--|
E-----------3--3-----------|

G-------------------|
D-------------------|
A--5-5-55-5-5-55-5--|
E-------------------|


G--------------------------|
D--------------------------|
A--5--5--5--------3--4--5--|
E-----------3--3-----------|

G-----------------------7-5------|
D--------4-5-6-7------------7-5--|
A-5--5-55---------5-5-55---------|x2
E--------------------------------|

G-----------------------|
D-----------------------|
A-----------------------|
E-3-3-33-1-1-11-3-3-33--|

G-----------------------7-5------|
D--------4-5-6-7------------7-5--|
A-5--5-55---------5-5-55---------|
E--------------------------------|

G-------------------|
D-------------------|
A--5-5-55-5-5-55-5--|
E-------------------|

G-----------------------7-5------|
D--------4-5-6-7------------7-5--|
A-5--5-55---------5-5-55---------|x2
E--------------------------------|

G-----------------------|
D-----------------------|
A-----------------------|
E-3-3-33-1-1-11-3-3-33--|

G-----------------------7-5------|
D--------4-5-6-7------------7-5--|
A-5--5-55---------5-5-55---------|
E--------------------------------|

G-------------------|
D-------------------|
A--5-5-55-5-5-55-5--|
E-------------------|

G--------------------------|
D--------------------------|
A--5--5--5--------3--4--5--|
E-----------3--3-----------|

comments
print report bad tab
2 comments total.
-1 reply
Phunk wrote on April 16 2007, 01:30 pm

wrong

0 reply
frenchabortion wrote on January 17 2008, 12:24 am

no it's right

I want to post or [tab]
guest
You may want to rate the tab now too:
select rating
Please do not post tabs as comments. Select "correction" instead!