Oops, an error
Loading. Please wait.

Should I Stay Or Should I Go Bass Tab

version 3
version 3

Whole song

Interactive

16,979 views 15 this week
2 commentsread comments
1 2 3 4 5
accurate
x 5
add to favorites
launch autoscroll
font size
0
reset
guitar tuner
Tab Pro tools
  • play this tab
  • loop segment
  • change instrument
  • show fretboard
  • metronome
×
Best way to learn
"Should I Stay Or Should I Go"
Autoscroll
slow
fast
+/-
esc
set tempo
stop
Should I Stay or Should I Go – The Clash
Bpm=113
Key of D , 4/4 time
Uploaded by Pablo Clark G. Dobarganes

All the other tabs I have seen are wrong because they simply don’t fit into the 12-bar
structure of the song. I do not take entire credit for this tab as I didn’t originally
it, I am just writing it down for you guys to play The Clash as good as you can. The
in the recording has a bit of a distortion to it but if played without it, it sounds
normal. I can assure you this is exactly as it is played in the record.
Bass Fig. 1
D         G       D      N.C.      D      G         D   N.C. End Fig 1
||----------------|---------------|----------------|----------------||
||----------------|---------------|----------------|----------------||
||-3h5-r-5---2-3--|5--r--r--r---r-|--5--r-5----2-3-|5--r--r--r---r--||
||--------3-3-----|---------------|--------3-3-----|----------------||

Bass Fig. 2
--Play on 1st time-|-Play on 2nd time-
D         G                         D      N.C.      D      G
||.---------------|----------------|----------------|----------------|
||----------------|----------------|----------------|----------------|
||-5--r-5---2-3---|-3h5-r-5----2-3-|5--r--r--r---r--|--5--r-5----2-3-|
||.-------3-3-----|--------3-3-----|----------------|---------3-3----|
 D     N.C.
|----------------|
|----------------|
|5--r--r--r---r--|
|----------------|

G      F        G                D     G          D      N.C.
|---------------|----------------|----------------|----------------|
|---------------|----------------|----------------|----------------|
|---------------|----------------|--5--r-5----2-3-|5--r--r--r---r--|
|-3-r-3-1-1-1-1-|3--r--r--r---r--|--------3-3-----|----------------|
 A                A7   N.C.        D     G          D   N.C. End Fig 2
|----------------|----------------|----------------|---------------.||
|----------------|----------------|----------------|----------------||
|----------------|----------------|--5--r-5----2-3-|5--r--r--r---r--||
|-r-5-5-5-5-5-5-5|5--r--r--r---r--|--------3-3-----|---------------.||

Bass Fig. 3
Double-time feel
  D         G      D                         G       D
||----------------|--------7-5-----|----------------|--------7-4-----|
||--------4-5-6-7-|------------7-5-|--------4-5-6-7-|------------6-4-|
||-5-5--5---------|-5-5--5---------|-5-5--5---------|-5-5--5---------|
||----------------|----------------|----------------|----------------|
  G       F/C     G                D      G         G       End Fig. 3
|----------------|----------------|----------------|--------7-5-----||
|----------------|---------5-3----|--------4-5-6-7-|------------7-5-||
|---------3-3-4-5|-------------5-3|-5-5--5---------|-5-5--5---------||
|3-x-3-3-3-------|3-x-3-3-3-------|----------------|----------------||

Bass Fig. 4
  A7               D    Dsus4  G    D  N.C.
||----------------|----------------|----------------||
||----------7-5---|----------------|----------------||
||-------------7-5|-------5-5-5----|-5--------------||
||-5-x-5-5-5------|-5-r-5-5------3-|----------------||

Bass Fig. 5
G      F        G                D     G          D      N.C.
||---------------|----------------|----------------|----------------|
||---------------|----------------|----------------|----------------|
||---------------|----------------|--5--r-5----2-3-|5--r--r--r---r--|
||-3-r-3-1-1-1-1-|3--r--r--r---r--|--------3-3-----|----------------|

A                   N.C.           D     G          D      N.C.
|----------------|----------------|----------------|----------------||
|----------------|----------------|----------------|----------------||
|----------------|----------------|--5--r-5----2-3-|5--r--r--r---r--||
|-5-5-5-5-5-5-5-5|-5-5--r--r---r--|--------3-3-----|----------------||

Bass Fig. 6
  A7                                D       G        D
||----------------|----------------|----------------|-------7-5------|
||----------7-5---|--------7-5-----|--------4-5-6-7-|-----------7-4--|
||-------------7-5|------------7-5-|-5-5--5---------|-5-5--5---------|
||-5-x-5-5-5------|-5-x-5-5-5------|----------------|----------------|

D       G        D                G       F/C     G
|----------------|-------7-5------|----------------|-----------------|
|--------4-5-6-7-|-----------7-4--|----------------|---------5-3-----|
|-5-5--5---------|-5-5--5---------|---------3-3-4-5|-------------5-3-|
|----------------|----------------|3-x-3-3-3-------|3-x-3-3-3--------|
D          G      D             A7 End double-time                  D
|----------------|-------7-5-----|----------------|-------------------|
|--------4-5-6-7-|-----------7-5-|----------7-5---|-------------------|
|-5-5--5---------|-5-5--5--------|-------------7-5|--------5-5-5----|5|
|----------------|---------------|-5-x-5-5-5------|-5-r-5-5------3----|
Structure
Intro – Bass Fig. 1
Verse 1 – Bass Fig. 2
Chorus 1 – Bass Fig. 3 and Bass Fig. 4
Verse 2 – Bass Fig. 2
Interlude – Bass Fig. 1 and Bass Fig. 5
Chorus/Outro – Bass Fig. 3 and Bass Fig. 6
comments
print report bad tab
2 comments total.
0 reply
robsuj wrote on June 15 2009, 02:55 pm

very nice tab! cheers!

0 reply
TONE DEFFMAN wrote on April 20 2010, 06:25 pm

not bad but Version 1 is nearer

I want to post or [tab]
guest
You may want to rate the tab now too:
select rating
Please do not post tabs as comments. Select "correction" instead!