Oops, an error
Loading. Please wait.

Should I Stay Or Should I Go Tab

version 3
version 3

Whole song

Interactive

8,218 views 1 this week
no commentswrite comment
1 2 3 4 5
please rate
add to favorites
launch autoscroll
font size
0
reset
how to read this tab
guitar tuner
Tab Pro tools
  • play this tab
  • loop segment
  • change instrument
  • show fretboard
  • metronome
×
Best way to learn
"Should I Stay Or Should I Go"
Autoscroll
slow
fast
+/-
esc
set tempo
stop
Contributor
e|--22-0--333-0--2----x-x-x--|
B|--33-0--333-0--3----x-x-x--|
G|--22-0--000-0--2----x-x-x--|
D|--00-0--000-0--0----x-x-x--|
A|--------222-0-------x-x-x--|
E|--------333-0-------x-x-x--|


e|--22-0--333-0--2----5h8--|
B|--33-0--333-0--3---------|
G|--22-0--000-0--2---------|
D|--00-0--000-0--0---------|
A|--------222-0------------|
E|--------333-0------------|


e|--22-0--333-0--2--|
B|--33-0--333-0--3--|
G|--22-0--000-0--2--|   X4
D|--00-0--000-0--0--|
A|--------222-0-----|
E|--------333-0-----|


e|--33-0--111-0--3--|
B|--33-0--111-0--3--|
G|--00-0--222-0--0--|   
D|--00-0--333-0--0--|
A|--22-0--333-0--2--|
E|--33-0--111-0--3--|


e|--22-0--333-0--2--|
B|--33-0--333-0--3--|
G|--22-0--000-0--2--|   
D|--00-0--000-0--0--|
A|--------222-0-----|
E|--------333-0-----|


e|------------|
B|--22222222--|
G|--22222222--|   
D|--22222222--|
A|--00000000--|
E|------------|


e|--22-0--333-0--2--|
B|--33-0--333-0--3--|
G|--22-0--000-0--2--|   
D|--00-0--000-0--0--|
A|--------222-0-----|
E|--------333-0-----|


e|--222222-333333-2222222222222222-333333--|
B|--333333-333333-3333333333333333-333333--|
G|--222222-000000-2222222222222222-000000--|
D|--000000-000000-0000000000000000-000000--|
A|---------222222------------------222222--|
E|---------333333------------------333333--|

e|--222222222222-333333-111111-333333333333--|
B|--333333333333-333333-111111-333333333333--|
G|--222222222222-000000-222222-000000000000--|
D|--000000000000-000000-333333-000000000000--|
A|---------------222222-333333-222222222222--|
E|---------------333333-111111-333333333333--|

e|--222222-333333-2222222222222222---------------|
B|--333333-333333-3333333333333333-222222222222--|
G|--222222-000000-2222222222222222-222222222222--|
D|--000000-000000-0000000000000000-222222222222--|
A|---------222222------------------000000000000--|
E|---------333333--------------------------------|


e|--22-0--333-0--2--|
B|--33-0--333-0--3--|
G|--22-0--000-0--2--|   X3
D|--00-0--000-0--0--|
A|--------222-0-----|
E|--------333-0-----|


e|--33-0--111-0--3--|
B|--33-0--111-0--3--|
G|--00-0--222-0--0--|   
D|--00-0--333-0--0--|
A|--22-0--333-0--2--|
E|--33-0--111-0--3--|


e|--22-0--333-0--2--|
B|--33-0--333-0--3--|
G|--22-0--000-0--2--|   
D|--00-0--000-0--0--|
A|--------222-0-----|
E|--------333-0-----|


e|------------|
B|--22222222--|
G|--22222222--|   
D|--22222222--|
A|--00000000--|
E|------------|


e|--22-0--333-0--2--|
B|--33-0--333-0--3--|
G|--22-0--000-0--2--|   X3
D|--00-0--000-0--0--|
A|--------222-0-----|
E|--------333-0-----|


e|--33-0--111-0--3--|
B|--33-0--111-0--3--|
G|--00-0--222-0--0--|   
D|--00-0--333-0--0--|
A|--22-0--333-0--2--|
E|--33-0--111-0--3--|


e|--22-0--333-0--2--|
B|--33-0--333-0--3--|
G|--22-0--000-0--2--|   
D|--00-0--000-0--0--|
A|--------222-0-----|
E|--------333-0-----|


e|------------|
B|--22222222--|
G|--22222222--|   
D|--22222222--|
A|--00000000--|
E|------------|


e|--22-0--333-0--2--|
B|--33-0--333-0--3--|
G|--22-0--000-0--2--|   
D|--00-0--000-0--0--|
A|--------222-0-----|
E|--------333-0-----|


e|--222222-333333-2222222222222222-333333--|  
B|--333333-333333-3333333333333333-333333--|                
G|--222222-000000-2222222222222222-000000--|                
D|--000000-000000-0000000000000000-000000--|
A|---------222222------------------222222--|
E|---------333333------------------333333--|

e|--222222222222-333333-111111-333333333333--|
B|--333333333333-333333-111111-333333333333--|
G|--222222222222-000000-222222-000000000000--|
D|--000000000000-000000-333333-000000000000--|
A|---------------222222-333333-222222222222--|
E|---------------333333-111111-333333333333--|

e|--222222-333333-2222222222222222---------------|
B|--333333-333333-3333333333333333-222222222222--|
G|--222222-000000-2222222222222222-222222222222--|
D|--000000-000000-0000000000000000-222222222222--|
A|---------222222------------------000000000000--|
E|---------333333--------------------------------|


e|--222222-333333-2222222222222222-333333--|  
B|--333333-333333-3333333333333333-333333--|                
G|--222222-000000-2222222222222222-000000--|                
D|--000000-000000-0000000000000000-000000--|
A|---------222222------------------222222--|
E|---------333333------------------333333--|

e|--222222222222-333333-111111-333333333333--|
B|--333333333333-333333-111111-333333333333--|
G|--222222222222-000000-222222-000000000000--|
D|--000000000000-000000-333333-000000000000--|
A|---------------222222-333333-222222222222--|
E|---------------333333-111111-333333333333--|

e|--222222-333333-2222222222222222---------------|
B|--333333-333333-3333333333333333-222222222222--|
G|--222222-000000-2222222222222222-222222222222--|
D|--000000-000000-0000000000000000-222222222222--|
A|---------222222------------------000000000000--|
E|---------333333--------------------------------|


e|--222222-333333-2222222222222222-333333--|  
B|--333333-333333-3333333333333333-333333--|                
G|--222222-000000-2222222222222222-000000--|                
D|--000000-000000-0000000000000000-000000--|
A|---------222222------------------222222--|
E|---------333333------------------333333--|

e|--222222222222-333333-111111-333333333333--|
B|--333333333333-333333-111111-333333333333--|
G|--222222222222-000000-222222-000000000000--|
D|--000000000000-000000-333333-000000000000--|
A|---------------222222-333333-222222222222--|
E|---------------333333-111111-333333333333--|

e|--222222-333333-2222222222222222---------------|
B|--333333-333333-3333333333333333-222222222222--|
G|--222222-000000-2222222222222222-222222222222--|
D|--000000-000000-0000000000000000-222222222222--|
A|---------222222------------------000000000000--|
E|---------333333--------------------------------|


e|--22-0--333-0--2--|
B|--33-0--333-0--3--|
G|--22-0--000-0--2--|   
D|--00-0--000-0--0--|
A|--------222-0-----|
E|--------333-0-----|

comments
We did not receive enough feedback on this tab! Please rate:
print report bad tab
1 2 3 4 5
I want to post or [tab]
guest
You may want to rate the tab now too:
select rating
Please do not post tabs as comments. Select "correction" instead!