Oops, an error
Loading. Please wait.

Spanish Bombs Bass Tab

version 1
version 1

Whole song

Interactive

9,944 views 9 this week
no commentswrite comment
1 2 3 4 5
excellent!
x 3
add to favorites
launch autoscroll
font size
0
reset
guitar tuner
Tab Pro tools
  • play this tab
  • loop segment
  • change instrument
  • show fretboard
  • metronome
Autoscroll
slow
fast
+/-
esc
set tempo
stop
Contributor
Spanish Bombs
Verse
G-------------------------------------------------------------|
D-----------------------------------------4-2-----------------|
A---------------------4-4-4--2-2-2-2-2-2------5-5-5-5-5-5-5-4-|
E-5-5-5-5-5-5-5--2-2-2----------------------------------------|

Chorus
G---------------------------------------------------------------|
D------------------4-4-4-2----4-4-4-2---0-0-2-2-4-4-5-5---------|
A--------------------------4----------4-------------------------|
E--5-5-5-5-5-5-5------------------------------------------------|
comments
We did not receive enough feedback on this tab! Please rate:
print report bad tab
1 2 3 4 5
I want to post or [tab]
guest
You may want to rate the tab now too:
select rating
Please do not post tabs as comments. Select "correction" instead!