Oops, an error
Loading. Please wait.

Stay Free Tab

version 1
version 1

Whole song

6,686 views 12 this week
no commentswrite comment
1 2 3 4 5
accurate
x 3
add to favorites
launch autoscroll
font size
0
reset
how to read this tab
guitar tuner
Tab Pro tools
  • play this tab
  • loop segment
  • change instrument
  • show fretboard
  • metronome
×
Best way to learn
"Stay Free"
Autoscroll
slow
fast
+/-
esc
set tempo
stop
Contributor
Difficulty
intermediate
I've only been playing guitar for 3 months, but i think this is good.

Chorus

e--------------------------------------|
B------------x-x--1-1-x-x-4-4-x-x-2-2--|
G--x-x--0-0--x-x--0-0-x-x-4-4-x-x-2-2--|
D--x-x--0-0--x-x--2-2-x-x-4-4-x-x-2-2--|
A--x-x--2-2--x-x--3-3-x-x-2-2-x-x-0-2--|
E--x-x--3-2----------------------------|

Verse
e--3-3--3----3-3--3----2-2--2----0-0--0-|X2
B--3-3--3----3-3--3----0-0--0----0-0--0-|
G--0-0--0----0-0--0----2-2--2----2-2--2-|
D---------------------------------------|
A---------------------------------------|
E---------------------------------------|

e-0-0--0----3-3--3----3-3--3----7-7--7----7-7--7----3-3--3---3--|
B-0-0--0----3-3--3----3-3--3----7-7--7----4-4--4----3-3--3---3--|
G-2-2--2----0-0--0----0-0--0----4-4--4----4-4--4----0-0--0---0--|
D---------------------------------------------------------------|
A---------------------------------------------------------------|
E---------------------------------------------------------------|


also
e-7-5-----------8-7----|
B-----8-7-5---8-----8--|


bridge
B, E, C, D
B, E, C, G
B, E, C, D
B, E, C, G


then strum
C, B, A, G


then

e--0h2-3-3-3-3-3-3-3-3-3 a few times

Solo
e----------------------------------------------------------------12----|
B-------12-12-12---12-13-12-------------------12-12-12--15-12-15----15-|
G----14---------------------14-12-12-------14--------------------------|
D-12------------------------------------12-----------------------------|
A----------------------------------------------------------------------|
E----------------------------------------------------------------------|


e----------------------------------------------------------10-12-10----|
B-12----12----12----12-13-12----12----12----12----12-13-12-------------|
G----12----12----12----------------12----12----12----------------------|
D----------------------------------------------------------------------|
A----------------------------------------------------------------------|
E----------------------------------------------------------------------|

e------------------------15-----------------8----8p7-7-7p5-5-5h7-------|
B-15p12--10--10-----8/12-----12----------------------------------------|
G----------12--12---------------12------7h9----------------------------|
D----------------------------------12----------------------------------|
thats enough.


By Alister
comments
We did not receive enough feedback on this tab! Please rate:
print report bad tab
1 2 3 4 5
I want to post or [tab]
guest
You may want to rate the tab now too:
select rating
Please do not post tabs as comments. Select "correction" instead!