Oops, an error
Loading. Please wait.

Abracadavers Tab

9,177 views 6 this week
4 commentsread comments
1 2 3 4 5
excellent!
x 7
add to favorites
launch autoscroll
font size
0
reset
how to read this tab
guitar tuner
Autoscroll
slow
fast
+/-
esc
set tempo
stop
Help us to improve Ultimate-Guitar.com Take our survey!
×
Author
Difficulty
Tuning
intermediate
C# G# C# F# A# D#
Abracadavers
The Classic Crime
The Silver Cord
2008

Tabbed by:Ekcend429

Tunings:

Guitar 1:Drop Db(Db-Ab-Db-Gb-Bb-Eb)
Guitar 2:Drop Db(Db-Ab-Db-Gb-Bb-Eb)

Please look at the key before reading

Key:
| /  slide up
| \  slide down
| h  hammer-on
| p  pull-off
| .  palm mute
| ~  let ring
| fb full bend
| %  The Sign

Intro/Verse 1
Guitar 2
                %
e|----5-5-5-5-5-|-----------5-5-5-5-5-5-|
B|----5-5-5-5-5-|-----------5-5-5-5-5-5-|repeat
G|----5-5-5-5-5-|-----------5-5-5-5-5-5-|twice
D|--------------|-5-5-7-7-7-------------|2nd time
A|-\\\----------|-5-5-7-7-7-------------|only
E|-\\\----------|-5-5-7-7-7-------------|


Guitar 1
                %
e|--5-5-5-5-5-5-|-----------5-5-5-5-5-5-|
B|--5-5-5-5-5-5-|-----------5-5-5-5-5-5-|
G|--5-5-5-5-5-5-|-----------5-5-5-5-5-5-|
D|--------------|-5-5-7-7-7-------------|
A|--------------|-5-5-7-7-7-------------|
E|--------------|-5-5-7-7-7-------------|

Both Guitars
e|-----------5-5-5-5-5-5-|-----------5-5-5-------5-5-5-|
B|-----------5-5-5-5-5-5-|-----------5-5-5-------5-5-5-|Repeat
G|-----------5-5-5-5-5-5-|-----------5-5-5-------5-5-5-|at
D|-5-5-3-3-3-------------|-5-5-3-3-3-------3-5-5-------|sign
A|-5-5-3-3-3-------------|-5-5-3-3-3-------3-5-5-------|
E|-5-5-3-3-3-------------|-5-5-3-3-3-------3-5-5-------|


Pre-Chorus
Guitar 1

e|-----------------------------------------------------------------------|
B|12-12-------13-13-------12-12-------10-10-------13-13-------13-12-10---|
G|------9-9-X4------9-9-X2------9-9-X2------9-9-X4------9-9-X2---------9-|
D|-----------------------------------------------------------------------|
A|-----------------------------------------------------------------------|
E|-----------------------------------------------------------------------|
        . .         . .         . .         . .         . .

e|----------------------------------------------------------------------|
B|-12-12--------13-13--------12-12--------13-13---------17----17---17---|
G|-------9-9-X4-------9-9-X2-------9-9-X2-------9-9-X4--19fb--19fb-19fb-|
D|----------------------------------------------------------------------|
A|----------------------------------------------------------------------|
E|----------------------------------------------------------------------|
         . .          . .          . .          . .

Pre-Chorus Guitar 2
e|-----------------------------------------------------------|
B|-----------------------------------------------------------|
G|-----------------------------------------------------------|
D|-----------------------------------------------------------|
A|-0000-X6-2222-3333-5555555555555555------------------------|
E|------------------------------------3333333333333333-5555--|
   ....    .... .... ................ ................ ....
e|-------------------------------------------------|
B|-------------------------------------------------|
G|-------------------------------------------------|
D|-------------------------------------------------|
A|-0000-X6-2222-3333-5555555555555555--------------|
E|------------------------------------3p0--3p0--\\-|
   ....    .... .... ................

Chorus
Both Guitars
e|-----------------------------------------------------------------------|
B|-8-8-8-8-8-8-8-8-8-8-8-8-8-8-10-10-10-6-6-6-6-6-6-6-6-6-5-5-5-5-3-3-3--|
G|-----------------------------------------------------------------------|
D|-5-5-5-5-5-5-5-5-5-5-5-5-5-5-7--7--7--3-3-3-3-3-3-3-3-3-2-2-2-2-0-0-0--|
A|-----------------------------------------------------------------------|
E|-----------------------------------------------------------------------|

e|------------------------------------------------------------------|
B|-6-6-6-6-6-6-6-6-5-5-5-5-5-8-8-8--5-5-5-5-5-5-5-5-3-3-3-3-3-3-3-3-|
G|------------------------------------------------------------------|
D|-3-3-3-3-3-3-3-3-2-2-2-2-2-5-5-5--2-2-2-2-2-2-2-2-0-0-0-0-0-0-0-0-|X2
A|------------------------------------------------------------------|
E|------------------------------------------------------------------|

Chorus
Guitar 2
e|-------------------------------------------------------------------|
B|-------------------------------------------------------------------|
G|-------------------------------------------------------------------|
D|-5-5-5-5-5-5-5-5-5-5-5-5-5-5-5-5-5-0-0-0-0-0-0-0-0-0-0-0-0-0-0-0-0-|
A|-5-5-5-5-5-5-5-5-5-5-5-5-5-5-5-5-5-0-0-0-0-0-0-0-0-0-0-0-0-0-0-0-0-|
E|-5-5-5-5-5-5-5-5-5-5-5-5-5-5-5-5-5-0-0-0-0-0-0-0-0-0-0-0-0-0-0-0-0-|

e|------------------------------------------------------------------|
B|------------------------------------------------------------------|
G|----------------------------------5-5-5-5-5-5-5-5-5-4-4-4-4-4-4-4-|
D|-3-3-3-3-3-3-3-3-3-3-3-3-3-3-3-3--5-5-5-5-5-5-5-5-5-5-5-5-5-5-5-5-|
A|-3-3-3-3-3-3-3-3-3-3-3-3-3-3-3-3--3-3-3-3-3-3-3-3-2-2-2-2-2-2-2-2-|
E|-3-3-3-3-3-3-3-3-3-3-3-3-3-3-3-3----------------------------------|


Verse 2
Both Guitars            %
e|-------5-5-5-5-5-5-5-|-----------5-5-5-5-5-5-|
B|-------5-5-5-5-5-5-5-|-----------5-5-5-5-5-5-|2nd time
G|-------5-5-5-5-5-5-5-|-----------5-5-5-5-5-5-|only
D|-7-7-7---------------|-5-5-7-7-7-------------|Repeat twice
A|-7-7-7---------------|-5-5-7-7-7-------------|
E|-7-7-7---------------|-5-5-7-7-7-------------|

e|-----------5-5-5-5-5-5-----------5-5-5-------5-5-5-|
B|-----------5-5-5-5-5-5-----------5-5-5-------5-5-5-|Repeat
G|-----------5-5-5-5-5-5-----------5-5-5-------5-5-5-|to sign
D|-5-5-3-3-3-------------5-5-3-3-3-------3-5-5-------|
A|-5-5-3-3-3-------------5-5-3-3-3-------3-5-5-------|
E|-5-5-3-3-3-------------5-5-3-3-3-------3-5-5-------|


Repeat Pre-chorus

Repeat chorus

Interlude
Guitar 1
e|--------------------------------------------------------|
B|-------------------------------------------|--17--------|
G|-------------------------------------------|--19bbbbbfb-|
D|-12-12-12-12-12~--14~--10~--14-15~---15-14~-------------|
A|--------------------------------------------------------|
E|--------------------------------------------------------|

Guitar 2
e|-------------------------------------------------------------------------|
B|-------------------------------------------------------------------------|
G|-------------------------------------------------------------------------|
D|------------------------------------------2-2-2-2-2-2-2-2-2-2-2-2-2-2-2-2|
A|------------------------------------------2-2-2-2-2-2-2-2-2-2-2-2-2-2-2-2|
E|------------------------------------------2-2-2-2-2-2-2-2-2-2-2-2-2-2-2-2|
                                              . . . . .


Breakdown
Guitar 1
e|-------------------------------------------------|
B|-15----------13----------15----------17----------|
G|-17fb--------15fb--------17fb--------19fb--------|
D|-------------------------------------------------|
A|-------------------------------------------------|
E|-------------------------------------------------|

Guitar 2
e|----------------------------------|
B|----------------------------------|
G|----------------------------------|
D|----------------------------------|
A|-5p0------------5p0---------------|
E|-----5p0-3p0-0------5p0-3p0-0-3p0-|


The ending chorus is a bit different


Chorus 2
Guitar 1
e|--------------------------------------------------------------------|
B|-8-8-8-8-8-8-8-8-8-8-8-8-8-10-10-10-6-6-6-6-5-5-5-5-3-3-3-3-3-5-5-5-|
G|--------------------------------------------------------------------|
D|-5-5-5-5-5-5-5-5-5-5-5-5-5-7--7--7--3-3-3-3-3-2-2-2-0-0-0-0-0-2-2-2-|
A|--------------------------------------------------------------------|
E|--------------------------------------------------------------------|

e|-----------------------------------------------------------------|
B|-6-6-6-6-6-6-6-6-5-5-5-5-5-8-8-8-5-5-5-5-5-5-5-5-3-3-3-3-3-3-3-3-|
G|-----------------------------------------------------------------|
D|-3-3-3-3-3-3-3-3-2-2-2-2-2-5-5-5-2-2-2-2-2-2-2-2-0-0-0-0-0-0-0-0-|
A|-----------------------------------------------------------------|
E|-----------------------------------------------------------------|

Guitar 2
e|-----------------------------------------------------------------|
B|-----------------------------------------------------------------|
G|-----------------------------------------------------------------|
D|-5-5-5-5-5-5-5-5-5-5-5-5-5-7-7-7-0-0-0-0-0-0-0-0-0-0-0-0-0-2-2-2-|
A|-5-5-5-5-5-5-5-5-5-5-5-5-5-7-7-7-0-0-0-0-0-0-0-0-0-0-0-0-0-2-2-2-|
E|-5-5-5-5-5-5-5-5-5-5-5-5-5-7-7-7-0-0-0-0-0-0-0-0-0-0-0-0-0-2-2-2-|

e|-----------------------------------------------------------------|
B|-----------------------------------------------------------------|
G|---------------------------------5-5-5-5-5-5-5-5-4-4-4-4-4-4-4-4-|
D|-3-3-3-3-3-3-3-3-3-3-3-3-3-3-3-3-5-5-5-5-5-5-5-5-5-5-5-5-5-5-5-5-|
A|-3-3-3-3-3-3-3-3-3-3-3-3-3-3-3-3-3-3-3-3-3-3-3-3-2-2-2-2-2-2-2-2-|
E|-3-3-3-3-3-3-3-3-3-3-3-3-3-3-3-3---------------------------------|

This is right before the second time of Chorus 2
e|-xxxxxx-|
B|-xxxxxx-|
G|-xxxxxx-|
D|-xxxxxx-|
A|-xxxxxx-|
E|-xxxxxx-|

Outro
Guitar 1
e|--------------------------------------------|
B|-17------------------15---------------------|
G|-19fb----------------17fb-------------------|
D|-----------------------------------------0--|
A|-----------------------------------------0--|
E|-----------------------------------------0--|

Guitar 2
e|--------------------------------------------|
B|--------------------------------------------|
G|--------------------------------------------|
D|-----------------------------------------0--|
A|-5p0------------5p0----------------------0--|
E|-----5p0-3p0-0------5p0-3p0-0-3p5-X2-----0--|


And that's it
Email=Ekcend@yahoo.com
Please comment and rate
Thank You
Suggest correction
What's this?
You can suggest a correction to this tab. Community and Mods will review your correction and vote to approve or reject it.
comments
print report bad tab
4 comments total. Showing first comments.
0 reply
the99thaisle 391 wrote on August 30 2008, 04:26 am

Very nice! I love the little bendy bits right before the chorus. Also, do you suppose that he's using some kind of effect to double all of the notes in the pre-chorus? I can't go that fast. =(

0 reply
EKCender429 278 wrote on August 30 2008, 08:03 am

nope
its actually possible to pick that fast

then again it could be an effect

0 reply
nickjlunn 337 wrote on October 21 2009, 08:52 am

:)i didn't see the guitar tuning at the beginning when i saw guitar 2 in the chorus barring some chords...

guest
You may want to rate the tab now too:
select rating
Please do not post tabs as comments. Select "correction" instead!