Oops, an error
Loading. Please wait.

Blindfolded Tab

version 1
version 1

Whole song

1,085 views 3 this week
no commentswrite comment
1 2 3 4 5
please rate
add to favorites
launch autoscroll
font size
0
reset
how to read this tab
guitar tuner
Autoscroll
slow
fast
+/-
esc
set tempo
stop
Help us to improve Ultimate-Guitar.com Take our survey!
×
Contributor
Difficulty
Unkempt 102
novice
-------------------------------------------------------------------------------
                             Blindfolded - The Classic Crime
-------------------------------------------------------------------------------
Tabbed by: George Odell

Tuning: Standard EADGBe

Intro/Verse: Repeat as necessary
e|---------------------------------------------------------------------------|
B|---------------------------------------------------------------------------|
G|----4--4----4--4----4--4----4--4----9---9----9---9----9---9----9---9-------|
D|----6--6----6--6----6--6----6--6----11--11---11--11---11--11---11--11------|
A|---------------------------------------------------------------------------|
E|--4--4----4--4----4--4----4--4----9---9----9---9----9---9----9---9---------|

e|---------------------------------------------------------------------------|
B|---------------------------------------------------------------------------|
G|----3--3----3--3----3--3----3--3----8--8-----8--8-----6----6---------------|
D|----4--4----4--4----4--4----4--4----9--9-----9--9-----8----8---------------|
A|---------------------------------------------------------------------------|
E|--2--2----2--2----2--2----2--2----7---7----7---7----6---------2/4----------|

e|---------------------------------------------------------------------------|
B|---------------------------------------------------------------------------|
G|----4--4----4--4----4--4----4--4----9---9----9---9----9---9----9---9-------|
D|----6--6----6--6----6--6----6--6----11--11---11--11---11--11---11--11------|
A|---------------------------------------------------------------------------|
E|--4--4----4--4----4--4----4--4----9---9----9---9----9---9----9---9---------|

e|---------------------------------------------------------------------------|
B|---------------------------------------------------------------------------|
G|----3--3----3--3----3--3----3--3----8--8-----8--8-----6---6----6---6-------|
D|----4--4----4--4----4--4----4--4----9--9-----9--9-----8---8----8---8-------|
A|---------------------------------------------------------------------------|
E|--2--2----2--2----2--2----2--2----7---7----7---7----6---6----6---6---------|

When the verse leads into the chorus, play the last two chords out:
e|---------------------------------------------------------------------------|
B|----------------------------------8*----------------6*---------------------|
G|----------------------------------9*----------------8*---------------------|
D|---------------------------------------------------------------------------|
A|----------------------------------7*----------------6*---------------------|
E|---------------------------------------------------------------------------|


Chorus:
e|---------------------------------------------------------------------------|
B|---------------------------------------------------------------------------|
G|--1-1111------------------------------------------------9-9999---9-9999----|
D|--2-2222---4-4444---6-6666---6-6666---6-6666---6-6666---9-9999---9-9999----|
A|--2-2222---4-4444---6-6666---6-6666---6-6666---4-4444---7-7777---7-7777----|
E|-----------2-2222---4-4444---4-4444---4-4444---6-6666----------------------|

e|---------------------------------------------------------------------------|
B|---------------------------------------------------------------------------|
G|--1-1111------------------------------------------------9-9999\------------|
D|--2-2222---4-4444---6-6666---6-6666---6-6666---6-6666---9-9999\------------|
A|--2-2222---4-4444---6-6666---6-6666---6-6666---4-4444---7-7777\------------|
E|-----------2-2222---4-4444---4-4444---4-4444---6-6666----------------------|

************************************

| /   slide up
| \   slide down
| *   let ring
| h   hammer-on
| p   pull-off
| ~   vibrato
| +   harmonic
| x   Mute note
| b   Bend
| pb  Pre-bend
| br  Bend release
| pbr Pre-bend release
| brb Bend release bend

************************************
comments
We did not receive enough feedback on this tab! Please rate:
print report bad tab
1 2 3 4 5
I want to post or [tab]
guest
You may want to rate the tab now too:
select rating
Please do not post tabs as comments. Select "correction" instead!