Oops, an error
Loading. Please wait.

Everything And Nothing Chords

version 2
version 2

Whole song

381 views 3 this week
no commentswrite comment
1 2 3 4 5
please rate
add to favorites
launch autoscroll
font size
0
reset
transpose
0
reset
display chords
guitar tuner
Autoscroll
slow
fast
+/-
esc
set tempo
stop
Help us to improve Ultimate-Guitar.com Take our survey!
×
Contributor
Difficulty
novice
-------------------------------------------------------------------------------
			      EVERYTHING AND NOTHING - The Classic Crime
-------------------------------------------------------------------------------
Tabbed by:Grandpa_Mike


Intro:
       Am          G           Am
E|--0--0--0-----3--3--3-----0--0--0
B|--1--1--1-----3--3--3-----1--1--1
G|--2--2--2-----0--0--0-----2--2--2
D|--2--2--2-----0--0--0-----2--2--2
A|--0--0--0-----2--2--2-----0--0--0
E|--x--x--x-----3--3--3-----x--x--x


Interlude:  (Am)  G  C  Am  F  Am  G



Am                      G      C
  Ive tasted fame but never fortune
               F	                   G
And still I couldnt care less for both
Am                    G         C
  I hope youre done saying "I told you so"
                  F                             G
Cause I think Im done telling the world what I know
          Am       G  C    F                 G
Cause everything is dark inside the whitest lie
Am                             G    C
  When you take the truth in every half truth
               F	                       G
You take the grey over the black and white



Am  G  F

        Am   G        F
I am everything and nothing (3x last time building up to Am chord)



Am                   C              F	          C  G
  Give me one good reason to believe Im not alone
Am         C              G
I will wait for You to answer me
Am                          C
  Ive never been much for smoke and mirrors
       F               C  G
So I need a hand to hold
Am         C              G
I will wait for You to answer me



Interlude:  Am  G  C  Am  F  Am  G



Am                         G        C
  Ive tasted blame poured out by brothers
        F	                  G
And I much prefer a womans scorn
Am                       G     C
  They chastise me for being honest
           F                                 G
When they hide behind their pride and their porn
          Am       G  C      F                 G
Cause everything is white inside the blackest truth
   Am	           G   C	              F	            G
I know you hate to hear it but its all that I can do



Am  G  F

        Am   G        F
I am everything and nothing (3x last time building up to Am chord)



Am                   C              F	          C  G
  Give me one good reason to believe Im not alone
Am         C              G
I will wait for You to answer me
Am                          C
  Ive never been much for smoke and mirrors
       F               C  G
So I need a hand to hold
Am         C              G
I will wait for You to answer me



F  C  G  Am  C  G
Whoaaaaaaaaaaaaaaaa...



        Am   G         F
I am everything and nothing  (2x)
       Am   G    F          Am    G    F
I am black and white, I am wrong and right



Solo:
E|------------11---|------------13-11--|-11-12-12-12-10-10-10-10-|-8-8-8-8-7-7-7-7-|
B|-13-11-13-11--13-|-13-11-13-11-------|-------------------------|-----------------|
G|-----------------|-------------------|-------------------------|-----------------|

E|-8---8---8--|--8---8--8--|-7-7-7-7-5-5-5-5-|-3-3-3-3-3-3-|
B|--8-8-8-8-8-|-8--8-8-8-8-|-----------------|-------------|
G|------------|------------|-----------------|-------------|



Am                   C              F	          C  G
  Give me one good reason to believe Im not alone
Am         C              G
I will wait for You to answer me
Am                          C
  Ive never been much for smoke and mirrors
       F               C  G
So I need a hand to hold
Am         C              G
I will wait for You to answer me



F  C  G  Am  C  G
Whoaaaaaaaaaaaaaaaa... (2x)

       Am          G           Am
E|--0--0--0-----3--3--3-----0--0--0
B|--1--1--1-----3--3--3-----1--1--1
G|--2--2--2-----0--0--0-----2--2--2
D|--2--2--2-----0--0--0-----2--2--2
A|--0--0--0-----2--2--2-----0--0--0
E|--x--x--x-----3--3--3-----x--x--x
comments
We did not receive enough feedback on this tab! Please rate:
print report bad tab
1 2 3 4 5
I want to post or [tab]
guest
You may want to rate the tab now too:
select rating
Please do not post tabs as comments. Select "correction" instead!