Oops, an error
Loading. Please wait.

Everything Tab

version 1
version 1

Intro

Whole song

1,436 views 1 this week
no commentswrite comment
1 2 3 4 5
excellent!
x 1
add to favorites
launch autoscroll
font size
0
reset
how to read this tab
guitar tuner
Tab Pro tools
  • play this tab
  • loop segment
  • change instrument
  • show fretboard
  • metronome
Autoscroll
slow
fast
+/-
esc
set tempo
stop
Contributor
Everything - Intro
By: the Classic Crime

tabbed by: skinnyt

tuning: Eb tuning (Eb,Ab,Db,Gb,Bb,Eb)

The other tab was mostly right for the intro, but I believe I have a correction. Plus I 
the part for the other guitar.  Then I tried the rest of the song too.

There is also accoustic in several parts of the song, I only tabbed the part
where it plays by itself.

This is my first tab, so I am sorry if my notation or etiquette are wrong.

Gtr1
eb|-7---7---7---7---16---16---11---11---9---9---9---9---11---11---7---7-| x2
Bb|---------------------------------------------------------------------|
Gb|---------------------------------------------------------------------|
Db|---------------------------------------------------------------------|
Ab|---------------------------------------------------------------------|
Eb|---------------------------------------------------------------------|
Gtr2
eb|---0---0---0---0---0---0---0---0---0---0---0---0----0----0----0------| x2
Bb|-9---9---9---9---9---9---9---9---7---7---7---7---10---10---10---10---|
Gb|---------------------------------------------------------------------|
Db|---------------------------------------------------------------------|
Ab|---------------------------------------------------------------------|
Eb|---------------------------------------------------------------------|

Gtr1-More Distorted
eb|-7---7---7---7///16---16---11---11---9---9---9---9---9---9---9h11--11-|x2
Bb|----------------------------------------------------------------------|
Gb|----------------------------------------------------------------------|
Db|----------------------------------------------------------------------|
Ab|----------------------------------------------------------------------|
Eb|----------------------------------------------------------------------|
Gtr2
eb|-0-----------------------------------0---------------0---------------| x2
Bb|-0-----------------------------------0---------------0---------------|
Gb|-x-----------------------------------x---------------x---------------|
Db|-2-----------------------------------11--------------9---------------|
Ab|-2-----------------------------------11--------------9---------------|
Eb|-0-----------------------------------9---------------7---------------|

Verse1
Gtr1
eb|-11------------------------------------------------------------------|
Bb|---------------------------------------------------------------------|
Gb|---------------------------------------------------------------------|
Db|---------------------------------------------------------------------|
Ab|---------------------------------------------------------------------|
Eb|---------------------------------------------------------------------|
Gtr2
eb|---------------------------------------------------------------------------------|
Bb|-9-9-9-9-9-9-9-9-9-9-9-9-9-9-9-9-------------------------------------------------|
Gb|-9-9-9-9-9-9-9-9-9-9-9-9-9-9-9-9-------------------------------------------------|
Db|---------------------------------14-14-14-14-14-14-14-14-14-14-14-14-14-14-14-14-|
Ab|---------------------------------12-12-12-12-12-12-12-12-12-12-12-12-12-12-12-12-|
Eb|---------------------------------------------------------------------------------|

Gtr1-Tacet
Gtr2
eb|---------------------------------------------------------------------------------|
Bb|-9-9-9-9-9-9-9-9-9-9-9-9-9-9-9-9/12-12-12-12-12-12-12-12-12-12-12-12-12-12-12-12-|
Gb|-9-9-9-9-9-9-9-9-9-9-9-9-9-9-9-9-9--9--9--9--9--9--9--9--9--9--9--9--9--9--9--9--|
Db|-9-9-9-9-9-9-9-9-9-9-9-9-9-9-9-9-9--9--9--9--9--9--9--9--9--9--9--9--9--9--9--9--|
Ab|-7-7-7-7-7-7-7-7-7-7-7-7-7-7-7-7-9--9--9--9--9--9--9--9--9--9--9--9--9--9--9--9--|
Eb|---------------------------------------------------------------------------------|

Gtr2
eb|------------------------------------------------------------------------------------------------|
Bb|-9--9--9--9--9--9--9--9--9--9--9--9--9--9--9--9-------------------------------------------------|
Gb|-9--9--9--9--9--9--9--9--9--9--9--9--9--9--9--9--14-14-14-14-14-14-14-14-14-14-14-14-14-14-14-14|
Db|-11-11-11-11-11-11-11-11-11-11-11-11-11-11-11-11-14-14-14-14-14-14-14-14-14-14-14-14-14-14-14-14|
Ab|-11-11-11-11-11-11-11-11-11-11-11-11-11-11-11-11-12-12-12-12-12-12-12-12-12-12-12-12-12-12-12-12|
Eb|------------------------------------------------------------------------------------------------|

Gtr1
eb|---------------------------------------------------------------------|
Bb|---------------------------------------------------------------------|
Gb|---------------------------------------------------------------------|
Db|---------------------------------7-7-7-7-7-7-7-7-9-9-9-9-9-9-9-9-----|
Ab|---------------------------------7-7-7-7-7-7-7-7-9-9-9-9-9-9-9-9-----|
Eb|---------------------------------5-5-5-5-5-5-5-5-7-7-7-7-7-7-7-7-----|
Gtr2
eb|---------------------------------------------------------------------|
Bb|-9-9-9-9-9-9-9-9-9-9-9-9-9-9-9-9-------------------------------------|
Gb|-9-9-9-9-9-9-9-9-9-9-9-9-9-9-9-9-------------------------------------|
Db|-9-9-9-9-9-9-9-9-9-9-9-9-9-9-9-9-7-7-7-7-7-7-7-7-9-9-9-9-9-9-9-9-----|
Ab|-7-7-7-7-7-7-7-7-7-7-7-7-7-7-7-7-7-7-7-7-7-7-7-7-9-9-9-9-9-9-9-9-----|
Eb|---------------------------------5-5-5-5-5-5-5-5-7-7-7-7-7-7-7-7-----|

Chorus
Gtr1 & Gtr2
eb|-0-0------0-0--0-------0--0-0------0 0 0------0---| x2
Bb|-0-0------0-0--0-------0--0-0------0 0 0------0---|
Gb|-9-9------9-x--x-------x--x-x------x x x------x---|
Db|-9-9------9-11-11------11-7-7------7 7 7------7---|
Ab|-7-7------7-11-11------11-7-7------7 7 7------7---|
Eb|-0-0------0-9--9-------9--5-5------5 5 5------5---|

Iterlude- Gtr1 plays first line of intro while Gtr2 plays the chords in the second 
line of the intro.

Second Verse - has some differences but I did not tab them

Chorus

Bridge
Gtr1 & Gtr2
eb|----------------------------------------| x2
Bb|----------------------------------------|
Gb|----------------------------------------|
Db|-9---9---4-2-2-2---7---7---11 11 11 11--|
Ab|-9---9---4-2-2-2---7---7---11 11 11 11--|
Eb|-7---7---2-0-0-0---5---5---9  9  9  9---|

Solo
Gtr1
eb|------------------------9--------------------------------------------|
Bb|-17---17-16---12-12---9----------------------------------------------|
Gb|--------------------------------------11-13-14----------11-13-14-----|
Db|-----------------------------11-13-14----------11-13-14--------------|
Ab|---------------------------------------------------------------------|
Eb|---------------------------------------------------------------------|
  |                                                                     |
eb|------------------------9--------------------------------------------|
Bb|-16---16-17---12-12---9---12-----------------------------------------|
Gb|-------------------------------13-11-------------13-11---------------|
Db|-------------------------------------14-11-------------14-11-------14|
Ab|-------------------------------------------14-11-------------14-11---|
Eb|---------------------------------------------------------------------|
Gtr2-during solo
eb|--------------------------|--------------| x2 |--------------|Play 2nd---|
Bb|--------------------------|--------------|    |--------------------------|time
Gb|--------------------------|--------------|    |----------9---------------|instead of
Db|-9---9---4-2-2-2---7---7--|-11 11 11 11--|    |-11---9---9---|the last 4-|
Ab|-9---9---4-2-2-2---7---7--|-11 11 11 11--|    |-11---9---7---------------|chords.
Eb|-7---7---2-0-0-0---5---5--|-9  9  9  9---|    |-9----7-------------------|


After the solo an accoustic plays the eb and Bb strings open for the whole chorus once.
Half way through this chorus an electric comes in again (below).
Gtr1
eb|---------------------------------------------------------------------|
Bb|---------------------------------------------------------------------|
Gb|-------------------------------------------------2222222222----------|
Db|-9999999999999999666666666666666622222222222222222222222222----------|
Ab|-7777777777777777444444444444444400000000000000000000000000----------|
Eb|-0000000000000000000000000000000000000000000000000000000000----------|

Then the chorus is played by Gtr2 as it is played in the first chorus while Gtr1 plays this.
eb|---------------------------------------------------------------------|x2
Bb|-17--12--10--9--17--12--10--9--17--12--10--9--10--12--14--14-12-10---|
Gb|---------------------------------------------------------------------|
Db|---------------------------------------------------------------------|
Ab|---------------------------------------------------------------------|
Eb|---------------------------------------------------------------------|

Finally Play the first line of the intro again and end on an E chord (or in this case Eb).


************************************

| /   slide up
| \   slide down
| h   hammer-on
| p   pull-off
| ~   vibrato
| +   harmonic
| x   Mute note
| b   Bend
| pb  Pre-bend
| br  Bend release
| pbr Pre-bend release
| brb Bend release bend

************************************
comments
We did not receive enough feedback on this tab! Please rate:
print report bad tab
1 2 3 4 5
I want to post or [tab]
guest
You may want to rate the tab now too:
select rating
Please do not post tabs as comments. Select "correction" instead!