Oops, an error
Loading. Please wait.

Fight Tab

version 2
version 2

Whole song

8,520 views 12 this week
6 commentsread comments
1 2 3 4 5
x 7
add to favorites
launch autoscroll
font size
0
reset
how to read this tab
guitar tuner
Autoscroll
slow
fast
+/-
esc
set tempo
stop
Help us to improve Ultimate-Guitar.com Take our survey!
×
Author
Difficulty
intermediate
Band Name: The Classic Crime
Song Name: The Fight
Album: Albatross

Tabbed by: Matt of Flawless Imperfection
Email: flawlessimpguitar@commspeed.net

The other tab for this had a few wrong things so this one is 99% perfect.

Tuning: Drop Db (Db Ab Db Gb Bb Eb)


|Intro|

Guitar 1:
Eb|------------------------------------------|
Bb|------------------------------------------|
Gb|------------------------------------------|
Db|-xxx-4-4-------xxx-0-0--xxx-2-2-----------|
Ab|-xxx-4-4-(2x)--xxx-0-0--xxx-2-2-----------|
Db|-xxx-4-4-------xxx-0-0--xxx-2-2-----------|

Guitar 2:
Eb|----------------------------------------------------------------|
Bb|----------------------------------------------------------------|
Gb|----9-9-9-9-9-9/11------------6-6-6-6-6-6/9------4-4-4-4/6\4\2--|
Db|--4-x-x-x-x-x-x-x---------0---x-x-x-x-x-x-x--2---x-x-x-x-x-x-x--|
Ab|--4-7-7-7-7-7-7/9---(2x)--0---4-4-4-4-4-4/7--2---2-2-2-2/4\2\0--|
Db|--4-----------------------0------------------2------------------|


|Verse part 1|

Both Guitars:
Eb|-----------------------------------------------------|
Bb|-----------------------------------------------------|
Gb|-----------------------------------------------------|
Db|-4---xxxxxxx-44---xxxxxxx-99---xxxxxxx-77-xxx-00-xxx-| (x2)
Ab|-4---xxxxxxx-44---xxxxxxx-99---xxxxxxx-77-xxx-00-xxx-|
Db|-4---xxxxxxx-44---xxxxxxx-99---xxxxxxx-77-xxx-00-xxx-|


|Verse part 2|

Guitar 1:
Eb|------------------------------------------------------------------------|
Bb|------------------------------------------------------------------------|
Gb|------------------------------------------------------------------------|
Db|44444444444444440000000000000000-(x3)--77777777777777777777777777777777-|
Ab|44444444444444440000000000000000-------77777777777777777777777777777777-|
Db|44444444444444440000000000000000-------77777777777777777777777777777777-|
   ********************************       ************************

Guitar 2:
Eb|-----------------------------------------------------------------------|
Bb|----------------------------------------------------------(Those are 11)
Gb|------------------(Those are 11)---------------------9999999/1111111111|
Db|66666677777777779999991111111111(x3)7777777777777777-xxxxxxx-xxxxxxxxx-|
Ab|----------------------------------------------------7777777/999999999--| 
Db|-----------------------------------------------------------------------| 
   ********************************    ****************   


|Chorus (Same as Intro)|

Guitar 1:
Eb|------------------------------------------|
Bb|------------------------------------------|
Gb|------------------------------------------|
Db|-xxx-4-4-------xxx-0-0--xxx-2-2-----------|
Ab|-xxx-4-4-(2x)--xxx-0-0--xxx-2-2-----------|
Db|-xxx-4-4-------xxx-0-0--xxx-2-2-----------|

Guitar 2:
Eb|----------------------------------------------------------------|
Bb|----------------------------------------------------------------|
Gb|----9-9-9-9-9-9/11------------6-6-6-6-6-6/9------4-4-4-4/6\4\2--|
Db|--4-x-x-x-x-x-x-x---------0---x-x-x-x-x-x-x--2---x-x-x-x-x-x-x--|
Ab|--4-7-7-7-7-7-7/9---(2x)--0---4-4-4-4-4-4/7--2---2-2-2-2/4\2\0--|
Db|--4-----------------------0------------------2------------------|


|Now repeat Verse and Chorus|


|Solo|
There are three guitar parts one for lead, one for harmony, and one for rhythm

Guitar 1:
(1)
Eb|------------------------------------------------|
Bb|------------17p14-------------------17p14-------|
Gb|------16p14-------16p14-------16p14-------16p14-|
Db|16-14-------------------16p14-------------------| (2x)
Ab|------------------------------------------------|
Db|------------------------------------------------|

(2)
Eb|---------------------------------------|
Bb|---------------------------------------|
Gb|-13-(5x)-11-(5x)-14-(5x)-13-(5x)-------|
Db|---------------------------------------|
Ab|---------------------------------------|
Db|---------------------------------------|

(3)
Eb|---------------------------------------|
Bb|----14----14--------14-----------------|
Gb|-14----13----13--14----13-14-14--------|
Db|---------------------------------------|
Ab|---------------------------------------|
Db|---------------------------------------|

(4)
Eb|--------------------------------------------------|
Bb|-10-9--10p9-10/12-10--12p10-12/14-12--14p12-14/17-|
Gb|--------------------------------------------------|
Db|--------------------------------------------------|
Ab|--------------------------------------------------|
Db|--------------------------------------------------|

Guitar 2:(harmony-the numbers show which parts play at the same time)
(1) No harmony

(2)
Eb|----------------------------------|
Bb|----------------------------------|
Gb|-14-(5x)-13-(5x)-16-(5x)-14-(5x)--|
Db|----------------------------------|
Ab|----------------------------------|
Db|----------------------------------|

(3) No harmony

(4)
Eb|--------------------------------------------------|
Bb|--------------------------------------------------|
Gb|-11-9--11p9-10/13-11--13p11-13/14-13--14p13-14/16-|
Db|--------------------------------------------------|
Ab|--------------------------------------------------|
Db|--------------------------------------------------|

Guitar 3:
Eb|------------------------------------------|
Bb|------------------------------------------|
Gb|------------------------------------------|
Db|-xxx-4/--------xxx-0/---xxx-2/------------|
Ab|-xxx-4/--(2x)--xxx-0/---xxx-2/------------|
Db|-xxx-4/--------xxx-0/---xxx-2/------------|


|Pre-Chorus/Post Solo|

Both guitars:
Eb|-----------------------------------------|
Bb|-----------------------------------------|
Gb|-----6------6------6---------------------|
Db|-0-0-x--0-0-x--0-0-x--0-0-0--------------|
Ab|-0-0-4--0-0-4--0-0-4--0-0-0--------------|
Db|-0-0----0-0----0-0----0-0-0--------------|
    * *    * *    * *    * * *

Both guitars:
Eb|--------------------------------------------------------|
Bb|--------------------------------------------------------|
Gb|-------9-9-9-9-9-9/11------------6------6------6--------|
Db|-xxx-4-x-x-x-x-x-x-x---------0-0-x--0-0-x--0-0-x--0-0-0-|
Ab|-xxx-4-7-7-7-7-7-7/9--(2x)---0-0-4--0-0-4--0-0-4--0-0-0-|
Db|-xxx-4-----------------------0-0----0-0----0-0----0-0-0-|
                                * *    * *    * *    * * *


|Chorus (a little different though)|
Eb|------------------------------------------------|
Bb|------------------------------------------------|
Gb|------------------------------------------------|
Db|44\---44\---0-------------2---------------------|
Ab|44\---44\---0-(let ring)--2-(let ring-----------|
Db|44\---44\---0-------------2---------------------|


|Last Chorus (The other two guitar parts are the same as 1 and 2 but with this thrid-guitar harmony part|

Guitar 3
Eb|----------------------------------------------------|
Bb|----------------------------------------------------|
Gb|-----13-13-13-13-13-13/14------------9-9-9-9-9-9/11-|
Db|---4-x--x--x--x--x--x--x-----------0-x-x-x-x-x-x-x--|
Ab|---4-11-11-11-11-11-11/12--(2x)----0-7-7-7-7-7-7/9--|
Db|---4-------------------------------0----------------|

Both guitars (at the end of the chorus):
Eb|----------------------------------|
Bb|----------------------------------|
Gb|----------------------------------|
Db|-xxx2-2-xxx2-2-xxx2-2-xxx2-2-xxx--|
Ab|-xxx2-2-xxx2-2-xxx2-2-xxx2-2-xxx--|
Db|-xxx2-2-xxx2-2-xxx2-2-xxx2-2-xxx--|


The crazy ending (both guitars):
Eb|-------------------------------------------------------------|
Bb|-------------------------------------------------------------|
Gb|-------------------------------------------------------------|
Db|-4////////////////////---(just keep sliding up as you strum)-|
Ab|-4////////////////////---------------------------------------|
Db|-4////////////////////---------------------------------------|

    
The very end:

Guitar 1        Guitar 2
Eb|-------|     Eb|--------|
Bb|-7-7/--|     Bb|-10-10/-|
Gb|-------|     Gb|--------|
Db|-------|     Db|--------|
Ab|-------|     Ab|--------|
Db|-------|     Db|--------|

There it is. Email me for any questions or comments and please leave feedback.



Suggest correction
comments
print report bad tab
6 comments total. Showing first comments.
0 reply
Chuck Tuck 10 Mar 20, 2007 02:40 PM

Very nice bro

0 reply
tab4jesus 41 Apr 25, 2007 12:17 AM

great tab man just one part you forgot between the 1st chorus and 2nd verse:

e|----------------------------------------------------|
b|----------------------------------------------------|
g|----------------------------------------------------|
d|-4-4-x-x--4-4-x-x-x-x-x-4-4-x-x-4-4-----------------|
a|-4-4-x-x--4-4-x-x-x-x-x-4-4-x-x-4-4-----------------|
E|-4-4-x-x--4-4-x-x-x-x-x-4-4-x-x-4-4-----------------|

0 reply
Josiah8 10 Jun 05, 2007 12:45 PM

finally, a decent tab for them, thx

guest
You may want to rate the tab now too:
select rating
Wanna post a correction for this tab? Suggest correction