Oops, an error
Loading. Please wait.

Glass Houses Tab

version 2
version 2

Whole song

289 views 1 this week
no commentswrite comment
1 2 3 4 5
please rate
add to favorites
launch autoscroll
font size
0
reset
how to read this tab
guitar tuner
Autoscroll
slow
fast
+/-
esc
set tempo
stop
Help us to improve Ultimate-Guitar.com Take our survey!
×
Author
Difficulty
This is the tab for the song Glass Houses by an amazing band titled The Classic Crime. 
This song is in standard tuning. It's pretty easy. I accidentally found this song while 
playing around on my guitar.

P.S. I helped fund this album and my name, Anthony Brandy, can be seen under the 
"executive producers" section of the vinyl of this album.

Intro: guitar 1

E|-------------------------------------------------------------------------|
B|-------------------------------------------------------------------------|
G|-------------------------------------------------------------------9--9--|
D|-----------7--7--7-----------7--7--7-----------7--7--7--7--10--10--------|
A|--8--8--8-----------8--8--8-----------8--8--8----------------------------|
E|-------------------------------------------------------------------------|



E|------------------------------------------------------------------------|
B|------------------------------------------------------------------------|
G|--10--9--10--9--10--9----------------9---------10--9--10--9--10--9------|
D|-----------------------10--7--10--7-----10--7-----------------------10--|
A|------------------------------------------------------------------------|
E|------------------------------------------------------------------------|



E|----------------------------|
B|----------------------------|
G|--9---------7---------------|
D|-----10--7-----10--7--------|
A|----------------------8~----|
E|----------------------------|

Intro: Guitar 2
E|---------------------------------------------------------------------------|
B|---------------------------------------------------------------------------|
G|---------------------------------------------------------------------------|
D|----------------------------------------------3--3--3--3--3--3----3--3--3--|
A|----------------------------------------------3--3--3--3--3--3----3--3--3--|
E|----------------------------------------------1--1--1--1--1--1----1--1--1--|



E|-----------------------------------------------------------------------|
B|-----------------------------------------------------------------------|
G|-----------------------------------------------------------------------|
D|--10--10--10--12--12--12--12--12--12--12----12--12--12--10--10--10--3~-|
A|--10--10--10--12--12--12--12--12--12--12----12--12--12--10--10--10--3~-|
E|--8---8---8---10--10--10--10--10--10--10----10--10--10--8---8---8---1~-|

Verse: Guitar 1

Hold every note until the next note.
E|----------------------------------------------------------------------|
B|----------------------------------------------------------------------|
G|----------------------------------------------------------------------|
D|----------------------------------------------------------------------|
A|--8----10--17----15--8----10--17----15--13----8----8----10--17----15--|
E|----------------------------------------------------------------------|
                 Once Guitar 1 gets to ^here^ Guitar 2 should come in and play this:
The multipliers aren't accurate, but you should be able to find out the strum pattern.
E|--------------------------------------------------------|
B|--------------------------------------------------------|
G|--------------------------------------------------------|
D|--8------3------5------8------10------14--15----15--15--|
A|--8-19x--3-14x--5-10x--8-19x--10-14x--14--15----15--15--|
E|--6------1------3------6------8-------12--13----13--13--|
    *      *      *      *      *       *   *     *   *

Chorus: Both Guitars play the same thing.
Again, you can find out the strum patterns, these are just the chords.
E|---------------------------------|
B|---------------------------------|
G|---------------------------------|
D|--15----14--12--11--8------3--5--|
A|--15----14--12--11--8------3--5--|
E|--13----12--10--9---6------1--3--|

The next part of the song is basically a repeat of what I've already put up here, so the 
next part (that's new) is the bridge.

Bridge:Guitar 1 does this until the DA DA DA part of the song.
Grace comes to those who wait...
E|----------------------------------------------------|
B|----------13--10--11--10----------10----------------|
G|------10------------------12--10------12--10--------|
D|--12------------------------------------------------|
A|----------------------------------------------------|
E|----------------------------------------------------|

While this is going on, the quiet version of the DA DA DA in the background via guitar 
1, guitar 2 is palm muting this:
Strum pattern is too long for me to count, so just play this by ear, these are 
definitely the notes though.

E|------------|
B|------------|
G|------------|
D|--7------3--|
A|--7------3--|
E|--5------1--|
    *      *

Once the quiet part of the DA DA DA  is up and the loud part(where everyone is singing 
it) comes up, guitar 2 just plays the first power chord and palm muting whenever the 
extension of the 10th fret B string on the second guitar happens.
Once the singing turns from DA DA DA to OH OH WHOA OH then the 1st guitar plays the 
second chord shown above continuing to palm mute whenever the extension of the 10th fret B 
string on the second guitar occurs.

After that you just play the chorus, and end on the second chord shown above.

Voila! You just learned Glass Houses. God bless, hope this works for you!
Suggest correction
What's this?
You can suggest a correction to this tab. Community and Mods will review your correction and vote to approve or reject it.
comments
We did not receive enough feedback on this tab! Please rate:
print report bad tab
1 2 3 4 5
guest
You may want to rate the tab now too:
select rating
Please do not post tabs as comments. Select "correction" instead!