Oops, an error
Loading. Please wait.

Grave Digging Tab

5,973 views 6 this week
4 commentsread comments
1 2 3 4 5
x 7
add to favorites
launch autoscroll
font size
0
reset
how to read this tab
guitar tuner
Autoscroll
slow
fast
+/-
esc
set tempo
stop
Help us to improve Ultimate-Guitar.com Take our survey!
×
Author
Tuning
D# G# C# F# A# D#
-------------------------------------------------------------------------------
			     GRAVEDIGGING - The Classic Crime
-------------------------------------------------------------------------------
Tabbed by: Tranx
Email: tranx13@gmail.com

Suggestions are always welcome, feel free to email me.

Tuning: Eb Ab Db Gb Bb eb (1/2 Step Down)

Intro - Lead - Play 2x
eb|----------------------------------------------------------------------------------------|
Bb|----------------------------------------------------------------------------------------|
Gb|9-9-9-9-9-9-9-9/11-11-11-11-11-11-11-11/12-12-12-12-12-12-12-12/14-14-14-14-14-14-14-14-|
Db|----------------------------------------------------------------------------------------|
Ab|7-7-7-7-7-7-7-7/9--9--9--9--9--9--9--9-/10-10-10-10-10-10-10-10/12-12-12-12-12-12-12-12-|
Eb|----------------------------------------------------------------------------------------|

Intro/Chorus - Rhythm - Play 2x 
eb|-----------------------------------------------------------------|
Bb|-----------------------------------------------------------------|
Gb|-----------------------------------------------------------------|
Db|5-5-5-5-5-5-5---2-2-2-2-2-2-2------------------------------------|
Ab|3-3-3-3-3-3-3---0-0-0-0-0-0-0----2-2-2-2-2-2-2---5-5-5-5-5-5-5---|
Eb|---------------------------------0-0-0-0-0-0-0---3-3-3-3-3-3-3---|

eb|---------------------------------------------------------------------------|
Bb|---------------------------------------------------------------------------|
Gb|9---9-9-9-9-9-9-9-9-9-9-9-9-14---14---9-9-9-9-9\---------------------------|
Db|---------------------------------------------------------------------------|
Ab|7---7-7-7-7-7-7-7-7-7-7-7-7-12---12---7-7-7-7-7\---------------------------|
Eb|---------------------------------------------------------------------------|



Intro - Lead - Play 1x
eb|-----------------------------------------------------------------------------|
Bb|-----------------------------------------------------------------------------|
Gb|9-12-12-11-11-9-9-12-12-11-11----------12-12-11-11-9-9-14-14-12-12-11-11-9-9-|
Db|------------------------------9-9----9---------------------------------------|
Ab|-----------------------------------------------------------------------------|
Eb|-----------------------------------------------------------------------------|

eb|-------------------------------------------------------------------------------|
Bb|-------------------------------------------------------------------------------|
Gb|9-12-12-11-11-9-9-12-12-11-11----------12-12-11-11-9-9-14-14-12-12-14-14-16-16-|
Db|------------------------------9-9----9-----------------------------------------|
Ab|-------------------------------------------------------------------------------|
Eb|-------------------------------------------------------------------------------|
Let 16 ring throughout next bar


Verse - Rhythm- Play 2x
eb|------------------------------------------------------------|
Bb|------------------------------------------------------------|
Gb|9-----------------------9-9---2-----------------------2-2---|
Db|9-xxx-xxx-xxx-xxx-xxx-xx9-9-x-2-xxx-xxx-xxx-xxx-xxx-xx2-2-x-|
Ab|7-xxx-xxx-xxx-xxx-xxx-xx7-7-x-0-xxx-xxx-xxx-xxx-xxx-xx0-0-x-|
Eb|------------------------------------------------------------|
	
                                    |Play 1st Time Only
eb|-------------------------------------------------------------|
Bb|-------------------------------------------------------------|
Gb|4---------4--------------------------------------------------|
Db|4-xxx-xxx-4-x-5---5---5---5---7---7-7-7-7-7-7-7-7-7-7-7-7-12-|
Ab|2-xxx-xxx-2-x-5---5---5---5---7---7-7-7-7-7-7-7-7-7-7-7-7-12-|
Eb|--------------3---3---3---3---5---5-5-5-5-5-5-5-5-5-5-5-5-10-|

Verse - Lead - Play 2x
eb|------------------------------------------------------------|
Bb|------------------------------------------------------------|
Gb|9-----------------------9-9---2-----------------------2-2---|
Db|9-xxx-xxx-xxx-xxx-xxx-xx9-9-x-2-xxx-xxx-xxx-xxx-xxx-xx2-2-x-|
Ab|7-xxx-xxx-xxx-xxx-xxx-xx7-7-x-0-xxx-xxx-xxx-xxx-xxx-xx0-0-x-|
Eb|------------------------------------------------------------|

				    |Play 1st Time Only
eb|-------------------------------------------------------------|
Bb|-------------------------------------------------------------|
Gb|4---------4-----------------------9-9-16-16-16-16-11-11-11-9-|
Db|4-xxx-xxx-4-x-5---5---5---5---7------------------------------|
Ab|2-xxx-xxx-2-x-5---5---5---5---7---7-7-14-14-14-14-9--9--9--7-|
Eb|--------------3---3---3---3---5------------------------------|

Chorus - Rhythm/Lead - Play 4x
eb|-----------------------------------------------------------------|
Bb|-----------------------------------------------------------------|
Gb|-----------------------------------------------------------------|
Db|5-5-5-5-5-5-5---2-2-2-2-2-2-2------------------------------------|
Ab|3-3-3-3-3-3-3---0-0-0-0-0-0-0----2-2-2-2-2-2-2---5-5-5-5-5-5-5---|
Eb|---------------------------------0-0-0-0-0-0-0---3-3-3-3-3-3-3---|

Rhythm Only
eb|---------------------------------------------------------------------------|
Bb|---------------------------------------------------------------------------|
Gb|9---9-9-9-9-9-9-9-9-9-9-9-9-14---14---9-9-9-9-9\---------------------------|
Db|---------------------------------------------------------------------------|
Ab|7---7-7-7-7-7-7-7-7-7-7-7-7-12---12---7-7-7-7-7\---------------------------|
Eb|---------------------------------------------------------------------------|

Verse - Rhythm
eb|------------------------------------------------------------|
Bb|------------------------------------------------------------|
Gb|9-----------------------9-9---2-----------------------2-2---|
Db|9-xxx-xxx-xxx-xxx-xxx-xx9-9-x-2-xxx-xxx-xxx-xxx-xxx-xx2-2-x-|
Ab|7-xxx-xxx-xxx-xxx-xxx-xx7-7-x-0-xxx-xxx-xxx-xxx-xxx-xx0-0-x-|
Eb|------------------------------------------------------------|
	
				   |Play 1st Time Only
eb|-------------------------------------------------------------|
Bb|-------------------------------------------------------------|
Gb|4---------4--------------------------------------------------|
Db|4-xxx-xxx-4-x-5---5---5---5---7---7-7-7-7-7-7-7-7-7-7-7-7-12-|
Ab|2-xxx-xxx-2-x-5---5---5---5---7---7-7-7-7-7-7-7-7-7-7-7-7-12-|
Eb|--------------3---3---3---3---5---5-5-5-5-5-5-5-5-5-5-5-5-10-|

Verse - Lead

eb|------------------------------------------------------------|
Bb|------------------------------------------------------------|
Gb|9-----------------------9-9---2-----------------------2-2---|
Db|9-xxx-xxx-xxx-xxx-xxx-xx9-9-x-2-xxx-xxx-xxx-xxx-xxx-xx2-2-x-|
Ab|7-xxx-xxx-xxx-xxx-xxx-xx7-7-x-0-xxx-xxx-xxx-xxx-xxx-xx0-0-x-|
Eb|------------------------------------------------------------|

				    |Play 1st Time Only
eb|-------------------------------------------------------------|
Bb|-------------------------------------------------------------|
Gb|4---------4-----------------------9-9-16-16-16-16-11-11-11-9-|
Db|4-xxx-xxx-4-x-5---5---5---5---7------------------------------|
Ab|2-xxx-xxx-2-x-5---5---5---5---7---7-7-14-14-14-14-9--9--9--7-|
Eb|--------------3---3---3---3---5------------------------------|

Chorus - Rhythm/Lead - Play 4x
eb|-----------------------------------------------------------------|
Bb|-----------------------------------------------------------------|
Gb|-----------------------------------------------------------------|
Db|5-5-5-5-5-5-5---2-2-2-2-2-2-2------------------------------------|
Ab|3-3-3-3-3-3-3---0-0-0-0-0-0-0----2-2-2-2-2-2-2---5-5-5-5-5-5-5---|
Eb|---------------------------------0-0-0-0-0-0-0---3-3-3-3-3-3-3---|

Breakdown - Rhythm - Play 4x
eb|---------------------------------------------------------------------------|
Bb|---------------------------------------------------------------------------|
Gb|---------------------------------------------------------------------------|
Db|2---2---2-----------------------2---0---2----------------------------------|
Ab|2---2---2-----------------------2---2---2----------------------------------|
Eb|0---0---0-----------------------0---0---0----------------------------------|

Breakdown - Lead - Tacet 2x, Play 1x
eb|--------------------------------------------------------------------------------|
Bb|--------------------------------------------------------------------------------|
Gb|9-9-9-9-9-9-9-9-9-9-9-9-9-9-9-9-11-11-11-11-11-11-11-11-11-11-11-11-11-11-11-11-|
Db|--------------------------------------------------------------------------------|
Ab|7-7-7-7-7-7-7-7-7-7-7-7-7-7-7-7-9--9--9--9--9--9--9--9--9--9--9--9--9--9--9--9--|
Eb|--------------------------------------------------------------------------------|

eb|------------------------------------------------------------------------------------------------|
Bb|------------------------------------------------------------------------------------------------|
Gb|12-12-12-12-12-12-12-12-12-12-12-12-12-12-12-12-14-14-14-14-14-14-14-14-14-14-14-14-14-14-14-14-|
Db|------------------------------------------------------------------------------------------------|
Ab|10-10-10-10-10-10-10-10-10-10-10-10-10-10-10-10-12-12-12-12-12-12-12-12-12-12-12-12-12-12-12-12-|
Eb|------------------------------------------------------------------------------------------------|

Solo - Rhythm - Play 2x
eb|----------------------------------------------------------------|
Bb|----------------------------------------------------------------|
Gb|----------------------------------------------------------------|
Db|5-5-5-5-5-5-5---2-2-2-2-2-2-2-----------------------------------|
Ab|3-3-3-3-3-3-3---0-0-0-0-0-0-0---2-2-2-2-2-2-2---5-5-5-5-5-5-5---|
Eb|--------------------------------0-0-0-0-0-0-0---3-3-3-3-3-3-3---|

Solo - Lead - Play 1x
eb|--------12--------12-------12--------12-----------------------------------------------|
Bb|-----12--------12-------12--------12--------------------------------------------------|
Gb|14b-------14b------14b-------14b--------14-12-14-12-14br-12--------12-14-12-14brbrbrb-|
Db|------------------------------------------------------------14------------------------|
Ab|--------------------------------------------------------------------------------------|
Eb|--------------------------------------------------------------------------------------|
   +        +        +        +        +        +
eb|------------------------------------------------------|
Bb|17p15p12-17p15p12-17p15p12-17p15p12-17p15p12-17p15p12-|
Gb|------------------------------------------------------|
Db|------------------------------------------------------|
Ab|------------------------------------------------------|
Eb|------------------------------------------------------|

   +        +        +        +        +        +
eb|------------------------------------------------------|
Bb|19p15p12-19p15p12-19p15p12-19p15p12-19p15p12-19p15p12-|
Gb|------------------------------------------------------|
Db|------------------------------------------------------|
Ab|------------------------------------------------------|
Eb|------------------------------------------------------|

   +        +        +        +        +        +
eb|------------------------------------------------------|
Bb|20p15p12-20p15p12-20p15p12-20p15p12-20p15p12-20p15p12-|
Gb|------------------------------------------------------|
Db|------------------------------------------------------|
Ab|------------------------------------------------------|
Eb|------------------------------------------------------|

   +        +        +        +        +        +
eb|---------------------------------------------17b------|
Bb|22p15p12-22p15p12-22p15p12-22p15p12-22p15p12----------|
Gb|------------------------------------------------------|
Db|------------------------------------------------------|
Ab|------------------------------------------------------|
Eb|------------------------------------------------------|

Chorus - Rhythm/Lead - Play 6x
eb|-----------------------------------------------------------------|
Bb|-----------------------------------------------------------------|
Gb|-----------------------------------------------------------------|
Db|5-5-5-5-5-5-5---2-2-2-2-2-2-2------------------------------------|
Ab|3-3-3-3-3-3-3---0-0-0-0-0-0-0----2-2-2-2-2-2-2---5-5-5-5-5-5-5---|
Eb|---------------------------------0-0-0-0-0-0-0---3-3-3-3-3-3-3---|

Breakdown - Rhythm - Play 2x
eb|---------------------------------------------------------------------------|
Bb|---------------------------------------------------------------------------|
Gb|---------------------------------------------------------------------------|
Db|2---2---2-----------------------2---0---2----------------------------------|
Ab|2---2---2-----------------------2---2---2----------------------------------|
Eb|0---0---0-----------------------0---0---0----------------------------------|

Breakdown - Lead - Play 2x
eb|--------------------------------------------------|
Bb|--------------------------------------------------|
Gb|11-11-11-11-11-11-11-11-9--9--9--9--9--9--9--9--9-|
Db|--------------------------------------------------|
Ab|9--9--9--9--9--9--9--9--7--7--7--7--7--7--7--7--7-|
Eb|--------------------------------------------------|

Outro - Rhythm - Play 1x
eb|---------------------------------------------------------------------------|
Bb|---------------------------------------------------------------------------|
Gb|---------------------------------------------------------------------------|
Db|2-----2-----2-----2------2-2-2-2-2-2-2-2-2-2-2-2-2--------2---0---2--------|
Ab|2-----2-----2-----2------2-2-2-2-2-2-2-2-2-2-2-2-2--------2---2---2--------|
Eb|0-----0-----0-----0------0-0-0-0-0-0-0-0-0-0-0-0-0--------0---0---0--------|

Outro - Lead - Play 1x
eb|---------------------------------------------------------------------------|
Bb|---------------------------------------------------------------------------|
Gb|9-----9-----9-----9-----9-9-9-9-9-9-9-9-9-9-9-9-9-9-------9---7---9\-------|
Db|9-----9-----9-----9-----9-9-9-9-9-9-9-9-9-9-9-9-9-9-------9---7---9\-------|
Ab|7-----7-----7-----7-----7-7-7-7-7-7-7-7-7-7-7-7-7-7-------7---5---7\-------|
Eb|---------------------------------------------------------------------------|



| /  slide up
| \  slide down
| h  hammer-on
| p  pull-off
| ~  vibrato
| +  tap
| x  Mute note
===============================================================================
Suggest correction
comments
print report bad tab
4 comments total. Showing first comments.
+1 reply
EKCender429 254 Jul 25, 2008 10:26 AM

first of all, this is in drop Db and the verse is wrong. The solo is a little off, but good job of trying it expect a ver 2 by tuesday

0 reply
linds4lif 114 Oct 27, 2008 03:19 PM

Uh..the verse is confusing.

0 reply
joel(^^^) 10 Dec 13, 2009 09:46 PM

verse was confusing, chorus sounded off, and you didnt get the tapping part in the solo.. i still havent figured out properly yet myself

guest
You may want to rate the tab now too:
select rating
Wanna post a correction for this tab? Suggest correction