Oops, an error
Loading. Please wait.

Headlights Tab

version 1
version 1

Whole song

Interactive

8,877 views 9 this week
2 commentsread comments
1 2 3 4 5
excellent!
x 9
add to favorites
launch autoscroll
font size
0
reset
how to read this tab
guitar tuner
Tab Pro tools
  • play this tab
  • loop segment
  • change instrument
  • show fretboard
  • metronome
Autoscroll
slow
fast
+/-
esc
set tempo
stop
Contributor
Difficulty
intermediate
----------------------------------------------------------------------------|
----------------     Headlights  - The Classic Crime        ----------------|
----------------------------------------------------------------------------|

Tabbed by: orion910
Band Site: http://www.theclassiccrime.com

Tuning: Eb Ab Db Gb Bb eb

Intro
Gtr1

eb|-------------------------------------------------------------------------|
Bb|-------------------------------------------------------------------------|
Gb|-999/1313131313\999/1313131313131413\11111111/131413\99998---------------|
Db|-------------------------------------------------------------------------|
Ab|-------------------------------------------------------------------------|
Eb|-------------------------------------------------------------------------|
Repeat 2x

Intro
Gtr2    C#m       A2        E         B
eb|-----00000000--00000000--00000000--00000000------------------------------|
Bb|-----55555555--00000000--00000000--00000000------------------------------|
Gb|-----66666666--66666666--99999999--88888888------------------------------|
Db|-----66666666--77777777--99999999--99999999------------------------------|
Ab|-----44444444--77777777--77777777--99999999------------------------------|
Eb|-----xxxxxxxx--55555555--00000000--77777777------------------------------|

Verse 1
Gtr1
eb|-------------------------------------------------------------------------|
Bb|-----5----4----2-------------2-------------------------5--------4--------|
Gb|------6----6----2----6---6----2-----2--------6----------6--------4-------|
Db|----6----6----2-----9-9-9-9-2--------4--------7-------6--6-6-6-4--4-4-4--|
Ab|---4----4----0--1x-4---4---0---3x--4--4-4-4-7--7-7-7\4----4-4-2----2-2---|
Eb|----------------------------------2----2-2-5----5-5----------------------|


Verse 1
Gtr1 (Continuation)
eb|-------------------------------------------------------------------------|
Bb|-------------------------------------------------------------------------|
Gb|----2--------6--------6--------6-----------------------------------------|
Db|-----4--------7--------7--------7----------------------------------------|
Ab|---4--4-4-4-7--7-7-7-7--7-7-7-7--7-7-7-----------------------------------|
Eb|--2----2-2-5----5-5-5----5-5-5----5-5------------------------------------|

Chorus
Gtr1   E    D#/E   A2      C#m   B     A2
(Clean)
eb|----0-----0-----0--0----0-----0-----0-0----------------------------------|
Bb|----0-----0-----0--0----5-----0-----0-0----------------------------------|
Gb|----9-----9-----2--8----6-----4-----2-8----------------------------------|
Db|----9-----9-----2--9----6-----4-----2-9----------------------------------|
Ab|----7-----6-----0--0----4-----2-----0-0----------------------------------|
Eb|----0-----x-----x--x----x-----x-----x-x----------------------------------|


Pre-Verse 2
Gtr1
eb|-------------------------------------------------------------------------|
Bb|---------------2---------------------------------------------------------|
Gb|-----6---6------2--------------------------------------------------------|
Db|----9-9-9-9---2----------------------------------------------------------|
Ab|---4---4---4-0----2x-----------------------------------------------------|
Eb|-------------------------------------------------------------------------|

Pre-Verse 2
Gtr2
eb|-----------------12\9----------------------------------------------------|
Bb|------12----12-----------------------------------------------------------|
Gb|----9---9--9--9-9--------------------------------------------------------|
Db|--11-----11----7-------2x------------------------------------------------|
Ab|-------------------------------------------------------------------------|
Eb|-------------------------------------------------------------------------|

Pre-Verse
Gtr3
eb|-0--0--0--0--------------------------------------------------------------|
Bb|-5--0--5--0--------------------------------------------------------------|
Gb|-6--2--6--2--------------------------------------------------------------|
Db|-6--2--6--2--------------------------------------------------------------|
Ab|-4--0--4--0--------------------------------------------------------------|
Eb|-x--x--x--x--------------------------------------------------------------|

Verse 2
Gtr1
eb|-------------------------------------------------------------------------|
Bb|--------------2-------------------------5--------4-----------------------|
Gb|------6---6----2-----2--------6----------6--------4----------------------|
Db|-----9-9-9-9-2--------4--------7-------6--6-6-6-4--4-4-4-----------------|
Ab|----4---4---0---2x--4--4-4-4-7--7-7-7\4----4-4-2----2-2------------------|
Eb|-------------------2----2-2-5----5-5-------------------------------------|

Verse 2
Gtr1 (Continuation)

eb|-------------------------------------------------------------------------|
Bb|--------------------------5--------4-------------------------------------|
Gb|-------2--------6----------6--------4------------------------------------|
Db|--------4--------7-------6--6-6-6-4--4-4-4-------------------------------|
Ab|------4--4-4-4-7--7-7-7\4----4-4-2----2-2--------------------------------|
Eb|-----2----2-2-5----5-5---------------------------------------------------|

Verse 2
Gtr2 (Clean)
eb|-0--0------2--0--0--0----------------------------------------------------|
Bb|-5--0------2--0--5--0----------------------------------------------------|
Gb|-6--2------2--6--6--4-------44444444-------------------------------------|
Db|-6--2------4--7--6--4-------44444444-------------------------------------|
Ab|-4--0------4--7--4--2-------22222222-------------------------------------|
Eb|-x--x--2x--2--5--x--x---2x--xxxxxxxx-------------------------------------|
                               xxxxxxxx
Chorus (Distortion)

eb|----0-----0-----0--0----0-----0-----0-0----------------------------------|
Bb|----0-----0-----0--0----5-----0-----0-0----------------------------------|
Gb|----9-----9-----2--2----6-----4-----2-2----------------------------------|
Db|----9-----9-----2--2----6-----4-----2-2----------------------------------|
Ab|----7-----6-----0--0----4-----2-----0-0----------------------------------|
Eb|----0-----x-----x--x----x-----x-----x-x----------------------------------|
Repeat 2x

Bridge
Gtr1
eb|--0--0--0--0-------------------------------------------------------------|
Bb|--5--0--0--0-------------------------------------------------------------|
Gb|--6--2--9--4-------------------------------------------------------------|
Db|--6--2--9--4-------------------------------------------------------------|
Ab|--4--0--7--2-------------------------------------------------------------|
Eb|--x--x--0--x--2x---------------------------------------------------------|

Bridge
Gtr2
eb|-------------------------------------------------------------------------|
Bb|-------------------------------------------------------------------------|
Gb|-999/1313131313\999/1313131313131413\11111111/131413\99998---------------|
Db|-------------------------------------------------------------------------|
Ab|-------------------------------------------------------------------------|
Eb|-------------------------------------------------------------------------|


Then repeat the chorus chords two more times, and on the second time the second guitar 
this.

eb|-------------------------------------------------------------------------|
Bb|-------------------------------------------------------------------------|
Gb|-------------------------------------------------------------------------|
Db|-1/2\1/2/9\1/2\1/2\1/2/9-------------------------------------------------|
Ab|-------------------------------------------------------------------------|
Eb|-------------------------------------------------------------------------|

That's about it, after all of that it's just a synthisizer or a special guitar effect or 
doing the chords.

| /  slide up
| \  slide down
| h  hammer-on
| p  pull-off
| ~  vibrato
| +  harmonic
| x  Mute note
===============================================================================
comments
print report bad tab
2 comments total.
0 reply
runkidrun06 wrote on August 30 2006, 08:41 pm

thank you so much for this tab. even though it isn't perfect, it's a great start to all the classic crime tabbing.

0 reply
paul_4God wrote on March 28 2010, 06:00 pm

it sound somehow like "softer to me" by relient k :-? :D (acoustic version :P )

I want to post or [tab]
guest
You may want to rate the tab now too:
select rating
Please do not post tabs as comments. Select "correction" instead!