Oops, an error
Loading. Please wait.

Heaven And Hell Tab

1,010 views 6 this week
no commentswrite comment
1 2 3 4 5
excellent!
x 4
add to favorites
launch autoscroll
font size
0
reset
how to read this tab
guitar tuner
Tab Pro tools
  • play this tab
  • loop segment
  • change instrument
  • show fretboard
  • metronome
Autoscroll
slow
fast
+/-
esc
set tempo
stop
Contributor
Difficulty
Tuning
intermediate
D# G# C# F# A# D#
Intro:
Eb|----8---------8---------8---------8-----|
Bb|----------------------------------------|
Gb|--5---5-5---5---5-5---5---5-5---5---5-5-|
Db|-7-7-7-7---7-7-7-7---7-7-7-7---7-7-7-7--|
Ab|----------------------------------------|
Db|----------------------------------------|

Verse:
Eb|----8---------8---------7---------8---------7---------7---------8---------7-----|
Bb|--------------------------------------------------------------------------------|
Gb|--5---5-5---5---5-5---5---5-5---5---5-5---4---4-4---4---4-4---4---4-4---4---4-4-| (x2)
Db|-7-7-7-7---7-7-7-7---7-7-7-7---7-7-7-7---5-5-5-5---5-5-5-5---5-5-5-5---5-5-5-5--|
Ab|--------------------------------------------------------------------------------|
Db|--------------------------------------------------------------------------------|

Eb|----5---------5---------1---------1-----|
Bb|----------------------------------------|
Gb|--2---2-2---2---2-2---2---2-2---2---2-2-|
Db|-3-3-3-3---3-3-3-3---0-0-0-0---0-0-0-0--| (x2)
Ab|----------------------------------------|
Db|----------------------------------------| 

Eb|----5---------5---------7---------7-----|
Bb|----------------------------------------|
Gb|--2---2-2---2---2-2---4---4-4---4---4-4-|
Db|-3-3-3-3---3-3-3-3---5-5-5-5---5-5-5-5--|
Ab|----------------------------------------|
Db|----------------------------------------|



Verse 1

Am
Im like a lost boy
                  G
Looking for his father in the wilderness
Am
Days in the wrong direction
                   G
Wondering if Ill ever see his face again
F                   Dm
But you know me too well
F                   Dm
I bring it all on myself
F                   G
Between heaven and hell
             Am
Ive got no home


Verse 2 

Am
Im like an old man
                  G
Tight lipped, filled to the bring with only emptiness
Am
Alone in my apartment
                  G
With all my doubt and shame
                  G
Regret and bitterness
F                   Dm
But you know me too well
F                   Dm
I bring it all on myself
F                   Dm
Between heaven and hell
             Am
Ive got no home


Am              G


F                     G
Between heaven and hell
            
Ive got no home


F, Am, F, Am, Dm, Am, Em


F               Am
We are the heirs to every throne
F          Am
We wander far from what weve known
Dm           Am             Em
We wait for love to call us home


Dm, Am, Dm, Am, Dm, F, G

F, Am, F, Am, Dm, Am, Em


F               Am
We are the heirs to every throne
F          Am
We wander far from what weve known
Dm           Am             Em
We wait for love to call us home (x2 End on F second time through)
comments
print report bad tab
I want to post or [tab]
guest
You may want to rate the tab now too:
select rating
Please do not post tabs as comments. Select "correction" instead!