Oops, an error
Loading. Please wait.

Just A Man Tab

version 1
version 1

Whole song

4,378 views 1 this week
2 commentsread comments
1 2 3 4 5
accurate
x 3
add to favorites
launch autoscroll
font size
0
reset
how to read this tab
guitar tuner
Autoscroll
slow
fast
+/-
esc
set tempo
stop
Help us to improve Ultimate-Guitar.com Take our survey!
×
Author
This tab is rhythm guitar only, i haven't figured out the lead part yet.


Intro
E|-------------------------------------|
B|-------------------------------------|
G|-------------------------------------|
D|-10101010-1010-10-10101010-1010-10---| (those are 10's)
A|-7-7-7-7--7-7--7--7-7-7-7--7-7--7----|
D|-7-7-7-7--7-7--7--7-7-7-7--7-7--7----|

E|-------------------------------------------|
B|-------------------------------------------|
G|-------------------------------------------|
D|-1010101010-1010-10-9-9-9-9--9-9--9--9--9--| (still 10's)
A|-1010101010-1010-10-10101010-1010-10-10-10-|
D|-1010101010-1010-10-9-9-9-9--9-9--9--9--9--|

Verse Pt 1
(Repeat Intro twice)

Verse Pt 2 (play twice)
E|-----------------------------------------|
B|-----------------------------------------|
G|-----------------------------------------|
D|-3333-xx-3333-xx-3333-xx-3333-xx---------|
A|-3333-xx-3333-xx-3333-xx-3333-xx---------|
D|-3333-xx-3333-xx-3333-xx-3333-xx---------|

E|-----------------------------------------|
B|-----------------------------------------|
G|-----------------------------------------|
D|-7777-xx-7777-xx-5555-xx-5555-xx---------|
A|-7777-xx-7777-xx-5555-xx-5555-xx---------|
D|-7777-xx-7777-xx-5555-xx-5555-xx---------|

Chorus
E|------------------------------------------------------------|
B|------------------------------------------------------------|
G|------------------------------------------------------------|
D|-3-3-3-3-3-3-5-5-5-5-5-5-10-10-10-10-10-10-7777-xx-5555-xx--| x2
A|-3-3-3-3-3-3-5-5-5-5-5-5-10-10-10-10-10-10-7777-xx-5555-xx--|
D|-3-3-3-3-3-3-5-5-5-5-5-5-10-10-10-10-10-10-7777-xx-5555-xx--|

E|-----------------------------------------|
B|-----------------------------------------|
G|-----------------------------------------|
D|-333333333333-555555555555-777777777777--|
A|-333333333333-555555555555-777777777777--|
D|-333333333333-555555555555-777777777777--|

E|---------------|
B|---------------|
G|---------------|
D|-7~---9~-------|
A|-7~---9~-------|
D|-5~---7~-------|

Post Chorus
E|----------------------------------------------|
B|----------------------------------------------|
G|----------------------------------------------|
D|-10101010-1010101010-1010101010-1010101010----|
A|-7-7-7-7--7-7-7-7-7--7-7-7-7-7--7-7-7-7-7-----|
D|-7-7-7-7--7-7-7-7-7--7-7-7-7-7--7-7-7-7-7-----|

E|-------------------------------------|
B|-------------------------------------|
G|-------------------------------------|
D|-10101010-1010-10-10101010-1010-10---| 
A|-7-7-7-7--7-7--7--7-7-7-7--7-7--7----|
D|-7-7-7-7--7-7--7--7-7-7-7--7-7--7----|

Repeat Verse

Repeat Chorus

Post Chorus
E|----------------------------------------------|
B|----------------------------------------------|
G|----------------------------------------------|
D|-10101010-1010101010-1010101010-1010101010----|
A|-7-7-7-7--7-7-7-7-7--7-7-7-7-7--7-7-7-7-7-----|
D|-7-7-7-7--7-7-7-7-7--7-7-7-7-7--7-7-7-7-7-----|

Bridge
E|-----------------------------------------|
B|-----------------------------------------|
G|-----------------------------------------|
D|-10-10-10-10-10-10-10-10-10-10-10-10-----|
A|-10-10-10-10-10-10-10-10-10-10-10-10-----|
D|-10-10-10-10-10-10-10-10-10-10-10-10-----|

E|-----------------------------------------------------|
B|-----------------------------------------------------|
G|-----------------------------------------------------|
D|-7-7-7-7-7-7-7-7-7-7-7-7-4-4-4-4-4-4-4-4-4-7-7-7-----|
A|-7-7-7-7-7-7-7-7-7-7-7-7-4-4-4-4-4-4-4-4-4-7-7-7-----|
D|-7-7-7-7-7-7-7-7-7-7-7-7-4-4-4-4-4-4-4-4-4-7-7-7-----|

E|-------------------------------|
B|-------------------------------|
G|-------------------------------|
D|-5-5-5-5-5-5-5-5-5-5-5-5-------|
A|-5-5-5-5-5-5-5-5-5-5-5-5-------|
D|-5-5-5-5-5-5-5-5-5-5-5-5-------|

End Chorus
E|--------------------------------------------------------|
B|--------------------------------------------------------|
G|-10-10-10-10-10-10-12-12-12-12-12-12--------------------|
D|-10-10-10-10-10-10-12-12-12-12-12-12-10-10-10-10-10-10--| <--Palm Muted
A|-8--8--8--8--8--8--10-10-10-10-10-10-10-10-10-10-10-10--|
D|-------------------------------------10-10-10-10-10-10--|

E|--------------------------------------------------------------------|
B|--------------------------------------------------------------------|
G|--------------------------------------------------------------------|
D|-7---5---3-3-3-3-3-3-5-5-5-5-5-5-10-10-10-10-10-10-7777-xx-5555-xx--|
A|-7---5---3-3-3-3-3-3-5-5-5-5-5-5-10-10-10-10-10-10-7777-xx-5555-xx--|
D|-7---5---3-3-3-3-3-3-5-5-5-5-5-5-10-10-10-10-10-10-7777-xx-5555-xx--|

E|------------------------------------------------|
B|------------------------------------------------|
G|-----------------------------------------7~--9~-|
D|-333333333333-555555555555-777777777777--7~--9~-|
A|-333333333333-555555555555-777777777777--5~--7~-|
D|-333333333333-555555555555-777777777777---------|

Outro
E|-----------------------------------------|
B|-----------------------------------------|
G|-------------------7-7-7-9-9-9-----------|
D|-10-10-10-10-10-10-7-7-7-9-9-9-----------| x2
A|-10-10-10-10-10-10-5-5-5-7-7-7-----------|
D|-10-10-10-10-10-10-----------------------|

E|-------------------------------------------------|
B|-------------------------------------------------|
G|-------------------------------------------------|
D|-10101010-1010101010-1010101010-1010101010--1010-|
A|-7-7-7-7--7-7-7-7-7--7-7-7-7-7--7-7-7-7-7---7-7--|
D|-7-7-7-7--7-7-7-7-7--7-7-7-7-7--7-7-7-7-7---7-7--|
Suggest correction
What's this?
You can suggest a correction to this tab. Community and Mods will review your correction and vote to approve or reject it.
comments
We did not receive enough feedback on this tab! Please rate:
print report bad tab
1 2 3 4 5
2 comments total.
0 reply
EKCender429 278 wrote on March 9 2009, 05:50 pm

this song is in drop C

but if u don't wanna play in that tuning then this is correct enough to play in drop d

0 reply
skinnyt 100 wrote on May 22 2014, 08:55 pm

I sure its in drop C? I know most of their songs are in drop C#, but the lead during the chorus, from what I can tell is much easier if you play in drop D.

guest
You may want to rate the tab now too:
select rating
Please do not post tabs as comments. Select "correction" instead!