Oops, an error
Loading. Please wait.

Let Me Die Tab

version 1
version 1

Whole song

2,113 views 6 this week
1 commentread comment
1 2 3 4 5
excellent!
x 6
add to favorites
launch autoscroll
font size
0
reset
how to read this tab
guitar tuner
Tab Pro tools
  • play this tab
  • loop segment
  • change instrument
  • show fretboard
  • metronome
×
Best way to learn
"Let Me Die"
Autoscroll
slow
fast
+/-
esc
set tempo
stop
Contributor
Difficulty
intermediate
RIFF
e-----------------------------------------------|
b-----------------------------------------------|
g-----------------------------------------------|
d----4h6-4--------------------------------------|
a-------------6-6-4-----------------------------|
e---------------------4s7-----------------------|

VERSE 1
G#m                      E
Tossed by the tempest of life
G#m                      E
A victim of storms I contrive
G#m                      F#
I feel like the best is behind
       G#m       F#
And I cant go back
G#m                     E
The eye of the storm satisfies
G#m                     E
I watch the chaos from inside
G#m                     F#
But the wind turns and I realize
        G#m        F#        G#m      F#
That I cant go back, That I cant go back

CHORUS
      E
So I go
          B               F#
Pressing on through the wind and the waves
       E          B           F#
If I drown let me go so that you can be saved
          E         B       F#
It don’t matter if people remember my name
        E
I have lived
        F#
I have lived
         (Riff x2)
Let me die

Verse 2
   G#m
I fight against what lies beneath
      E
Its just my will against the sea
      G#m                   E
Ive never been one to give in
   G#m
Of all the virtues I have lacked
     E
The need to fight has been my anchor
   G#m                       F#
I could never ask for you to save me
         G#m                                 F#
No your will could never calm the seas Im braving

(Chorus)

Instrumental/solo

   G#m         B            C#m          E
e---------------------------------------------------|
b---------------------------------------------------|
g----------------------------------------4---4-4----|
d--------------4----4-4---4-6-4-6-6-4-6----6--------|
a--6-4-6-6-4-6---6------6---------------------------|
e---------------------------------------------------|
  G#m         B            C#m          E
e----------------------------------------------------|
b----------------------------------------------------|
g----------------------------------------4---4-4-3-1-|
d--------------4----4-4---4-6-4-6-6-4-6----6---------|
a--6-4-6-6-4-6---6------6----------------------------|
e----------------------------------------------------|

Let me die
I have lived
I have lived
Let me die
comments
print report bad tab
1 comment total.
0 reply
Calypsann wrote on July 30 2013, 12:50 am

This is a good tab. I like to play this song with my guitar tuned a half step down (as with most TCC songs). In that case G#m= Am, E= F, F#= G, and B= C. It's a bit easier that way.

I want to post or [tab]
guest
You may want to rate the tab now too:
select rating
Please do not post tabs as comments. Select "correction" instead!