Oops, an error
Loading. Please wait.

R And R Tab

2,792 views 1 this week
1 commentread comment
1 2 3 4 5
accurate
x 3
add to favorites
launch autoscroll
font size
0
reset
how to read this tab
guitar tuner
Tab Pro tools
  • play this tab
  • loop segment
  • change instrument
  • show fretboard
  • metronome
×
Best way to learn
"R And R"
Autoscroll
slow
fast
+/-
esc
set tempo
stop
Contributor
Song = R&R
Band = The Classic Crime
Tuning = Standard Tuning Half Step Down
Time Signature = 6/8

Key:
\ = Slide Down

This isn't the whole song, but a good part of it. I hope you guys enjoy it. Very 
simple but fun to play. Thanks!

___________________________________________________________________________________
eb|-----------------|-----------|-----------|-----------|                          |
Bb|-----------------|-----------|-----------|-----------|                          |
Gb|-----------------|-----------|-----------|-----------|x2                        |
Db|-----------------|-----------|-----------|-----------|                          |
Ab|10-10-10-10-10-10|8-8-8-8-8-8|0-0-0-0-0-0|0-0-0-0-0-0|                          |
Eb|-----------------|-----------|-----------|-----------|                          |
___________________________________________________________________________________|
eb|-----------------|-----------|-----------|-----------|-----------|-----------|  |x2
Bb|-----------------|-----------|-----------|-----------|-----------|-----------|  |
Gb|-----------------|-----------|-----------|-----------|-----------|-----------|  |
Db|-----------------|-----------|-----------|-----------|-----------|-----------|  |
Ab|10-10-10-10-10-10|8-8-8-8-8-8|0-0-0-2-2-2|3-3-3-5-5-5|8-8-8-8-8-8|8-8-8-8-0-0|  |
Eb|-----------------|-----------|-----------|-----------|-----------|-----------|  |
___________________________________________________________________________________|


__________________________________________________
eb|-----------|-----------|-----------|-----------|
Bb|-----------|-----------|------1----|------1----|
Gb|------4----|------2----|----2---2--|----0---0--|
Db|----5---5--|----3---3--|--2-------2|--2-------2|
Ab|--5-------5|--3-------3|0----------|3----------|
Eb|3----------|1----------|-----------|-----------|
__________________________________________________|
eb|------1----|-----------|-----------|-----------|x2
Bb|----3---3--|------1----|-----------|-----------|
Gb|--2-------2|----0---0--|------4----|------4----|
Db|0----------|--2-------2|----5---5--|----5---5--|
Ab|-----------|3----------|--5-------5|--5-------5|
Eb|-----------|-----------|3----------|3----------|
__________________________________________________|


________________________________________________________________________
eb|-----------------------------------|---------------------------------||
Bb|-----------------------------------|---------------------------------||
Gb|12-12-12-12-12-12-12-12-12-12-12-12|10-10-10-10-10-10-10-10-10-10-10\||
Db|-----------------------------------|---------------------------------||
Ab|10-10-10-10-10-10-10-10-10-10-10-10|8--8--8--8--8--8--8--8--8--8--8\-||
Eb|-----------------------------------|---------------------------------||
________________________________________________________________________||
eb|----------------|----------------|                                    |x2
Bb|----------------|----------------|                                    |
Gb|2--2--2--2--2--2|2--2--2--2--2--2|                                    |
Db|2--2--2--2--2--2|2--2--2--2--2--2|                                    |
Ab|0--0--0--0--0--0|0--0--0--0--0--0|                                    |
Eb|----------------|----------------|                                    |
_________________________________________________________________________|


____________________________________________________
eb|-----------|-----------|------------|------------|
Bb|-----------|-----------|------------|------------|
Gb|-----------|-----------|2-22-24-44-4|5-55-57-77-7|
Db|5-5-5-5-5-5|3-3-3-3-3-3|2-22-24-44-4|5-55-57-77-7|
Ab|5-5-5-5-5-5|3-3-3-3-3-3|0-00-02-22-2|3-33-35-55-5|
Eb|3-3-3-3-3-3|1-1-1-1-1-1|------------|------------|
____________________________________________________|


____________________________________
eb|-----------------|---------------|
Bb|-----------------|---------------|
Gb|10-10-10-10-10-10|10-10-10-10----|
Db|10-10-10-10-10-10|10-10-10-10-7-7|
Ab|8--8--8--8--8--8-|8--8--8--8--7-7|
Eb|-----------------|------------5-5|
____________________________________|


__________________________________________________
eb|-----------|-----------|-----------|-----------|
Bb|-----------|-----------|------1----|------1----|
Gb|------4----|------2----|----2---2--|----0---0--|
Db|----5---5--|----3---3--|--2-------2|--2-------2|
Ab|--5-------5|--3-------3|0----------|3----------|
Eb|3----------|1----------|-----------|-----------|
__________________________________________________|
eb|------1----|-----------|-----------|-----------|x2
Bb|----3---3--|------1----|-----------|-----------|
Gb|--2-------2|----0---0--|------4----|------4----|
Db|0----------|--2-------2|----5---5--|----5---5--|
Ab|-----------|3----------|--5-------5|--5-------5|
Eb|-----------|-----------|3----------|3----------|
__________________________________________________|
comments
We did not receive enough feedback on this tab! Please rate:
print report bad tab
1 2 3 4 5
1 comment total.
+1 reply
bsngr95 wrote on August 5 2010, 12:43 pm

good tab! if it had the bridge and it was good, i would have given it 5 stars. but still i find it really good what you have here, great job! been waiting for this tab for awhile now

I want to post or [tab]
guest
You may want to rate the tab now too:
select rating
Please do not post tabs as comments. Select "correction" instead!