Oops, an error
Loading. Please wait.

Salt In The Snow Tab

version 1
version 1

Intro

Whole song

4,448 views 6 this week
no commentswrite comment
1 2 3 4 5
excellent!
x 3
add to favorites
launch autoscroll
font size
0
reset
how to read this tab
guitar tuner
Tab Pro tools
  • play this tab
  • loop segment
  • change instrument
  • show fretboard
  • metronome
Autoscroll
slow
fast
+/-
esc
set tempo
stop
Contributor
Difficulty
Tuning
novice
C# G# C# F# A# D#
Intro
G1
|------------------------|------------------------|
|3---3---3---2---2---2---|0---0---0---------------|
|--2---2---2---2---2---2-|--2---2---2-2-2-2-2-2-2-|
|------------------------|------------------------| 1-3
|------------------------|------------------------|
|------------------------|------------------------|
      
|------------------------|------------------------|
|------------------------|0---0---0---2---2---2---|
|--2---2---2-2-2-2-2-2-2-|--2---2---2---2---2---2-| 4th 
|4---4---4---------------|------------------------|
|------------------------|------------------------|
|------------------------|------------------------|

G2
|------------------------|------------------------|
|3-----3---x-5-----5---x-|3-----3---x-7---7---7---|
|2-----2---x-6-----6---x-|2-----2---x-7---7---7---| 4x
|0-----0---x-0-----0---x-|0-----0---x-0---0---0---|
|------------------------|------------------------|
|------------------------|------------------------|

G3
|------------------------|------------------------|
|------------------------|------------------------|
|-7----------7-----------|-----------4-----2------| 
|-7----------7-----------|5----------4-----2------|
|-5----------5-----------|5----------2-----0------|
|------------------------|5-----------------------|


Verse
G1&3
|------------------------|------------------------|
|------------------------|------------------------|
|7---7---7---7---7---7---|9---9---9---6---6---6---|
|--0---0---0---0---0---0-|--0---0---0---0---0---0-|
|0-----------------------|------------------------|
|0-----------------------|------------------------|

|------------------------|------------------------|
|------------------------|------------------------|
|4---4---4---4---4---4---|2---2---2---2---2---2---|
|--0---0---0---0---0---0-|--0---0---0---0---0---0-|
|------------------------|------------------------|
|------------------------|------------------------|

G2 Natural Harmonics
|------------------------|------------------------|
|-7----------5-----------|-7---------5------------|
|-7----------5-----------|-7---------5------------|
|-7----------5-----------|-7---------5------------|
|------------------------|------------------------|
|------------------------|------------------------|

PreChorus

|------------------------|------------------------|
|-3----------3-----3-----|-3----------3-----3-----|
|-2----------4-----2-----|-2----------4-----6-----|
|-0----------0-----0-----|-0----------0-----0-----|
|-0----------------------|-0----------------------|
|------------------------|------------------------|

Chorus Repeat Intro All Three Guitars

Repeat Verse Through Chorus

Bridge G1-G3

|------------------------|------------------------|
|4-----------------------|7---7---7---7---7---7---|
|4-----------------------|------------------------|
|2-----------------------|------------------------|
|2-----------------------|9---9---9---9---9---9---|
|2-----------------------|9---9---9---9---9---9---|
      
|------------------------|------------------------|
|5-------------------7---|------------------------|
|----7---6---7---9-------|------------------------|
|------------------------|0---7---7---7---5---4---|
|7---7---7---7---7---7---|0---0---0---0---0---0---|
|7---7---7---7---7---7---|0---0---0---0---0---0---|
       
|------------------------|------------------------|
|----------------7-8-7-8-|10----------10----------|
|----------------7-9-7-9-|11----------11----------|
|5---4---2---0-----------|------------------------|
|5---5---5---5---5---5---|9---9---9---9---9---9---|
|5---5---5---5---5---5---|9---9---9---9---9---9---|
       
|------------------------|------------------------|
|10----------8-----------|7-----------8-----------|
|11----------9-----------|7-----------9-----------|
|------------------------|------------------------|
|0---0---0---2---2---2---|4---4---4---5---5---5---|
|0---0---0---2---2---2---|4---4---4---5---5---5---|
     
|------------------------|------------------------|
|5-----------5-----------|5-----------5-----------|
|6-----------6-----------|6-----------6-----------|
|------------------------|------------------------|
|7---7---7---7---7---7---|7---7---7---7---7---7---|
|7---7---7---7---7---7---|7---7---7---7---7---7---|
      
|------------------------|------------------------|
|3-----------------------|------------------------|
|2-----------------------|------------------------|
|0-----------------------|------------------------|
|0-----------------------|------------------------|
|0-----------------------|------------------------|
 
Repeat Chorus 2x with some variations

Outro

|------------------------|------------------------|
|------------------------|------------------------|
|7---7---7---7---7---7---|6---6---6---9---9---9---| 2x
|--0---0---0---0---0---0-|--0---0---0---0---0---0-|
|------------------------|------------------------|
|------------------------|------------------------|
      
|------------------------|------------------------|
|------------------------|------------------------|
|11--11--11--11--11--11--|9---9---9---12--12--12--| 2x
|--0---0---0---0---0---0-|--0---0---0---0---0---0-|
|------------------------|------------------------|
|------------------------|------------------------|

Buildup

|------------------------|------------------------|
|------------------------|------------------------|
|------------------------|------------------------|
|-4---4---4---4---4---4--|4---4---4---4---4---4---|
|-4---4---4---4---4---4--|4---4---4---4---4---4---|
|-4---4---4---4---4---4--|4---4---4---4---4---4---|
 
Outro 2 with Intro/Chorus G3   
|------------------------|------------------------|
|------------------------|------------------------|
|14--14--14--14--14--14--|12--12--12--11--11--11--|
|------------------------|------------------------|
|12--12--12--12--12--12--|10--10--10--9---9---9---|
|------------------------|------------------------|
       
|------------------------|------------------------|
|------------------------|------------------------|
|14--14--14--14--14--14--|12--12--12--11--11--11--|
|------------------------|------------------------|
|12--12--12--12--12--12--|10--10--10--9---9---9---|
|------------------------|------------------------|
       
|------------------------|------------------------|
|------------------------|------------------------|
|7---7---7---7---7---7---|6---6---6---4---4---4---|
|------------------------|------------------------|
|5---5---5---5---5---5---|4---4---4---2---2---2---|
|------------------------|------------------------|
         
|------------------------|------------------------|
|------------------------|------------------------|
|11--11--11--11--11--11--|9---9---9---9---9---9---|
|------------------------|------------------------|
|9---9---9---9---9---9---|7---7---7---7---7---7---|
|------------------------|------------------------|
comments
We did not receive enough feedback on this tab! Please rate:
print report bad tab
1 2 3 4 5
I want to post or [tab]
guest
You may want to rate the tab now too:
select rating
Please do not post tabs as comments. Select "correction" instead!