Oops, an error
Loading. Please wait.

Say The Word Tab

version 1
version 1

Whole song

Interactive

4,864 views 9 this week
2 commentsread comments
1 2 3 4 5
accurate
x 2
add to favorites
launch autoscroll
font size
0
reset
how to read this tab
guitar tuner
Tab Pro tools
  • play this tab
  • loop segment
  • change instrument
  • show fretboard
  • metronome
Autoscroll
slow
fast
+/-
esc
set tempo
stop
Contributor
Difficulty
intermediate
-------------------------------------------------------------------------------
                             Say the Word - The Classic Crime
-------------------------------------------------------------------------------
Tabbed by: orion910
Band Site: http://www.theclassiccrime.com

Tuning: EADGBE (Standard)

Intro:

e|--0---0---0--0---0---0---0------------------------------------------------|
B|---0---0---0--0---0---0---0-----------------------------------------------|
G|----4---4------4---4-------4----------------------------------------------|
D|--------------------------------------------------------------------------|
A|--------------------------------------------------------------------------|
E|--------------------------------------------------------------------------|
(Do that continuously until the pre-verse)

Pre-Verse
Gtr1
e|--------------------------------------------------------------------------|
B|------12-9----12-9---------12-------12-----12-----12----------------------|
G|--11p9----11p9-----13p9h11---13p9h11---8h9---9-8h9------------------------|
D|--------------------------------------------------------------------------|
A|--------------------------------------------------------------------------|
E|--------------------------------------------------------------------------|
Repeat 2x

Pre-Verse
Gtr2
e|--------------------------------------------------------------------------|
B|--------------------------------------------------------------------------|
G|--------------------------------------------------------------------------|
D|--7----9----11----6-------------------------------------------------------|
A|--7----9----11----6-------------------------------------------------------|
E|--5-8x-7-8x-9-8x--4-8x----------------------------------------------------|
Repeat 2x

Verse 1

e|--------------------------------------------------------------------------|
B|--------------------------------------------------------------------------|
G|------------66666666------------------------------------------------------|
D|--44444444--66666666--77777777--99999999----------------------------------|
A|--44444444--44444444--77777777--99999999----------------------------------|
E|--22222222--xxxxxxxx--55555555--77777777--4x------------------------------|    
xxxxxxxx xxxxxxxx  xxxxxxxx  xxxxxxxx


Pre-Chorus
Gtr1
e|--0---0---0--0---0---0---0------------------------------------------------|
B|---0---0---0--0---0---0---0-----------------------------------------------|
G|----4---4------4---4-------4----------------------------------------------|
D|--------------------------------------------------------------------------|
A|--------------------------------------------------------------------------|
E|--------------------------------------------------------------------------|
(Do that continuously again until the chorus)

Pre-Chorus
Gtr2
e|--------------------------------------------------------------------------|
B|--------------------------------------------------------------------------|
G|--------------------------------------------------------------------------|
D|--------------------------------------------------------------------------|
A|----7/9\7--7/9\7--7/9\7--7/9\7--------------------------------------------|
E|--5------7------9------4--------------------------------------------------|
Repeat 2x

Chorus

e|--------------------------------------------------------------------------|
B|--------------------------------------------------------------------------|
G|--------------------------------------------------------------------------|
D|--7----9----11----6-------------------------------------------------------|
A|--7----9----11----6-------------------------------------------------------|
E|--5-8x-7-8x-9-8x--4-8x----------------------------------------------------|
Repeat 2x

Verse 2

e|--------------------------------------------------------------------------|
B|--------------------------------------------------------------------------|
G|------------66666666------------------------------------------------------|
D|--44444444--66666666--77777777--99999999----------------------------------|
A|--44444444--44444444--77777777--99999999----------------------------------|
E|--22222222--xxxxxxxx--55555555--77777777--4x------------------------------|    
xxxxxxxx xxxxxxxx  xxxxxxxx  xxxxxxxx

Pre-Chorus
Gtr1
e|--0---0---0--0---0---0---0------------------------------------------------|
B|---0---0---0--0---0---0---0-----------------------------------------------|
G|----4---4------4---4-------4----------------------------------------------|
D|--------------------------------------------------------------------------|
A|--------------------------------------------------------------------------|
E|--------------------------------------------------------------------------|
(Do that continuously again until the chorus)

Pre-Chorus
Gtr2
e|--------------------------------------------------------------------------|
B|--------------------------------------------------------------------------|
G|--------------------------------------------------------------------------|
D|--------------------------------------------------------------------------|
A|----7/9\7--7/9\7--7/9\7--7/9\7--------------------------------------------|
E|--5------7------9------4--------------------------------------------------|
Repeat 2x

Chorus

e|--------------------------------------------------------------------------|
B|--------------------------------------------------------------------------|
G|--------------------------------------------------------------------------|
D|--7----9----11----6-------------------------------------------------------|
A|--7----9----11----6-------------------------------------------------------|
E|--5-8x-7-8x-9-8x--4-8x----------------------------------------------------|
Repeat 4x

Bridge

e|---------------------------0---0---0---0---0---0--------------------------|
B|----------------------------0---0---0---0---0---0-------------------------|
G|---------------------4-------4---4-------4---4----------------------------|
D|----6-4--6-4---6-4--6------------------------------66666------------------|
A|---7----7-----7----7-------------------------------66666------------------|
E|--5----5-----5----5----4x--------------------------44444------------------|
                                                     xxxxx
Chorus
Gtr1
e|--------------------------------------------------------------------------|
B|------12-9----12-9---------12-------12-----12-----12----------------------|
G|--11p9----11p9-----13p9h11---13p9h11---8h9---9-8h9------------------------|
D|--------------------------------------------------------------------------|
A|--------------------------------------------------------------------------|
E|--------------------------------------------------------------------------|
Repeat 2x and then on the final chorus do it again.

Chorus
Gtr2
e|--------------------------------------------------------------------------|
B|--------------------------------------------------------------------------|
G|--------------------------------------------------------------------------|
D|--7----9----11----6-------------------------------------------------------|
A|--7----9----11----6-------------------------------------------------------|
E|--5-8x-7-8x-9-8x--4-8x----------------------------------------------------|
Repeat 5x


| /  slide up
| \  slide down
| h  hammer-on
| p  pull-off
| ~  vibrato
| +  harmonic
| x  Mute note
===============================================================================
comments
We did not receive enough feedback on this tab! Please rate:
print report bad tab
1 2 3 4 5
2 comments total.
0 reply
drmichael wrote on January 14 2009, 09:30 pm

I believe that the little riff in the beginning and also the one towards the end goes more like this:



Gtr1
e|---------------------------------------------7-------7-------7--------7---|
B|------12-9----12-9------12-10-9----12-10----------------------------------|
G|--11p9----11p9-----11-9---------9---------8h9--9--8h9--9--8h9--9--8h9---9-|
D|--------------------------------------------------------------------------|
A|--------------------------------------------------------------------------|
E|--------------------------------------------------------------------------|

0 reply
drmichael wrote on January 14 2009, 09:48 pm

Actually, let me correct that.


Gtr1
e|-------------------------------------------7-------7-------7--------7---|
B|------12-----12----9---12-10-9---12-10----------------------------------|
G|--11p9--9-11p9-9-----9---------9--------8h9--9--8h9--9--8h9--9--8h9---9-|
D|------------------------------------------------------------------------|
A|------------------------------------------------------------------------|
E|------------------------------------------------------------------------|

I want to post or [tab]
guest
You may want to rate the tab now too:
select rating
Please do not post tabs as comments. Select "correction" instead!