Oops, an error
Loading. Please wait.

Say The Word Tab

version 2
version 2

Whole song

Interactive

483 views 1 this week
no commentswrite comment
1 2 3 4 5
excellent!
x 3
add to favorites
launch autoscroll
font size
0
reset
how to read this tab
guitar tuner
Tab Pro tools
  • play this tab
  • loop segment
  • change instrument
  • show fretboard
  • metronome
Autoscroll
slow
fast
+/-
esc
set tempo
stop
Contributor
-------------------------------------------------------------------------------
                             Say the Word – The Classic Crime
-------------------------------------------------------------------------------
Tabbed by: Aaron Trinkner
Email: drummersrpeople2@yahoo.com

Tuning: Half Step Down Drop Db 
Intro Part 1
eb|--0------------0---------0----------0--------0--------0----------------|
Bb|------6------------6---------6----------6--------6---------6-----------|
Gb|---------5------------5---------------------5--------5-----------------|
Db|-----------------------------------------------------------------------|
Ab|-----------------------------------------------------------------------|
Db|-----------------------------------------------------------------------|
Intro Part 2 (Guitar 1)
eb|----8---------8----------8p6-----8p6----8--------8--------8-------8----|
Bb|8p6---6---8p6---6---10p6----10p6----5h6---6--5h6--6---5h6--6--5h6-----6|
Gb|-----------------------------------------------------------------------|
Db|-----------------------------------------------------------------------|
Ab|-----------------------------------------------------------------------|
Db|-----------------------------------------------------------------------|
Intro Part 2 (Guitar 2)
eb|--------------------------------------------------------------|
Bb|--------------------------------------------------------------|
Gb|--------------------------------------------------------------|
Db|--88888888---10-10-10-10-10-10-10-10----00000000------99999999|
Ab|--88888888---10-10-10-10-10-10-10-10----00000000------99999999|
Db|--88888888---10-10-10-10-10-10-10-10----00000000------99999999|

Verse 1 I had months to write a song...
eb|--------------------------------------------------------|
Bb|--------------------------------------------------------|
Gb|--------------------------------------------------------|
Db|-55555555--00000000--88888888---10-10-10-10-10-10-10-10-|
Ab|-55555555--00000000--88888888---10-10-10-10-10-10-10-10-|
Db|-55555555--00000000--88888888---10-10-10-10-10-10-10-10-|
    ........  ........  ........    .  .  .  .  .  .  .  .
Pre-Chorus (Guitar 1)This is the way that I know...
eb|--0------------0---------0----------0--------0--------0----------------|
Bb|------6------------6---------6----------6--------6---------6-----------|
Gb|---------5------------5---------------------5--------5-----------------|
Db|-----------------------------------------------------------------------|
Ab|-----------------------------------------------------------------------|
Db|-----------------------------------------------------------------------|
Pre-Chorus (Guitar 2)This is the way that I know...
eb|------------------------------------------------------------------------|
Bb|------------------------------------------------------------------------|
Gb|------------------------------------------------------------------------|
Db|--3p5-3---3p5--3--3p5--3----3p5--3----3p5--3---3p5--3---3p5---3--9999999|
Ab|-1------3-----------------0---------1--------3--------5----------9999999|
Db|-----------------0-----------------------------------------------9999999|
Chorus 1 Are you different, could I be different too?
eb|------------------------------------------------------------------------|
Bb|------------------------------------------------------------------------|
Gb|------------------------------------10-10-10-10-10-10-10-10-------------|
Db|--88888888-10-10-10-10-10-10-10-10------------------------------99999999|
Ab|--88888888-10-10-10-10-10-10-10-10--8--8--8--8--8--8--8--8------99999999|
Db|--88888888-10-10-10-10-10-10-10-10--0--0--0--0--0--0--0--0------99999999|
Verse 2 Cause there's a song outside my window...
eb|--------------------------------------------------------|
Bb|--------------------------------------------------------|
Gb|--------------------------------------------------------|
Db|-55555555--00000000--88888888---10-10-10-10-10-10-10-10-|
Ab|-55555555--00000000--88888888---10-10-10-10-10-10-10-10-|
Db|-55555555--00000000--88888888---10-10-10-10-10-10-10-10-|
    ........  ........  ........    .  .  .  .  .  .  .  .
Pre-Chorus (Guitar 1)This is the way that I know...
eb|--0------------0---------0----------0--------0--------0----------------|
Bb|------6------------6---------6----------6--------6---------6-----------|
Gb|---------5------------5---------------------5--------5-----------------|
Db|-----------------------------------------------------------------------|
Ab|-----------------------------------------------------------------------|
Db|-----------------------------------------------------------------------|
Pre-Chorus (Guitar 2)
eb|------------------------------------------------------------------------|
Bb|------------------------------------------------------------------------|
Gb|------------------------------------------------------------------------|
Db|--3p5-3---3p5--3--3p5--3----3p5--3----3p5--3---3p5--3---3p5---3--9999999|
Ab|-1------3-----------------0---------1--------3--------5----------9999999|
Db|-----------------0-----------------------------------------------9999999|
Chorus 2 Are you different, could I be different too?
eb|------------------------------------------------------------------------|
Bb|------------------------------------------------------------------------|
Gb|------------------------------------10-10-10-10-10-10-10-10-------------|
Db|--88888888-10-10-10-10-10-10-10-10------------------------------99999999|
Ab|--88888888-10-10-10-10-10-10-10-10--8--8--8--8--8--8--8--8------99999999|
Db|--88888888-10-10-10-10-10-10-10-10--0--0--0--0--0--0--0--0------99999999|
Bridge part 1 Say the word, say the word
eb|-------------------------------------------------------------------------|
Bb|-------------------------------------------------------------------------|
Gb|-------------------------------------------------------------------------|
Db|-------7--5--7--5--7--5--7--10-------------------------------------------|
Ab|---8---------------------------------------------------------------------|
Db|8------------------------------------------------------------------------|

Bridge part 2 (Guitar 1) Are you different, could I be different too?
eb|--0------------0---------0----------0--------0--------0----------------|
Bb|------6------------6---------6----------6--------6---------6-----------|
Gb|---------5------------5---------------------5--------5-----------------|
Db|-----------------------------------------------------------------------|
Ab|-----------------------------------------------------------------------|
Db|-----------------------------------------------------------------------|
Bridge part 2 (Guitar 2) Are you different, could I be different too?
eb|--------------------------------------------------------------|
Bb|--------------------------------------------------------------|
Gb|--------------------------------------------------------------|
Db|--88888888---10-10-10-10-10-10-10-10----00000000------99999999|
Ab|--88888888---10-10-10-10-10-10-10-10----00000000------99999999|
Db|--88888888---10-10-10-10-10-10-10-10----00000000------99999999|
     ........   .  .  .   .  .  .  .  .    ........      ........
Interlude (Guitar 1)
eb|----8---------8----------8p6-----8p6----8--------8--------8-------8----|
Bb|8p6---6---8p6---6---10p6----10p6----5h6---6--5h6--6---5h6--6--5h6-----6|
Gb|-----------------------------------------------------------------------|
Db|-----------------------------------------------------------------------|
Ab|-----------------------------------------------------------------------|
Db|-----------------------------------------------------------------------|
Interlude (Guitar 2)
eb|--------------------------------------------------------------|
Bb|--------------------------------------------------------------|
Gb|--------------------------------------------------------------|
Db|--88888888---10-10-10-10-10-10-10-10----00000000------99999999|
Ab|--88888888---10-10-10-10-10-10-10-10----00000000------99999999|
Db|--88888888---10-10-10-10-10-10-10-10----00000000------99999999|
Chorus 3 (Guitar 1) Are you different, could I be different too?
eb|------------------------------------------------------------------------|
Bb|------------------------------------------------------------------------|
Gb|------------------------------------10-10-10-10-10-10-10-10-------------|
Db|--88888888-10-10-10-10-10-10-10-10------------------------------99999999|
Ab|--88888888-10-10-10-10-10-10-10-10--8--8--8--8--8--8--8--8------99999999|
Db|--88888888-10-10-10-10-10-10-10-10--0--0--0--0--0--0--0--0------99999999|

Chorus 3 (Guitar 2, this is played after the first part of chorus 3 is repeated twice)
eb|----8---------8----------8p6-----8p6----8--------8--------8-------8----|
Bb|8p6---6---8p6---6---10p6----10p6----5h6---6--5h6--6---5h6--6--5h6-----6|
Gb|-----------------------------------------------------------------------|
Db|-----------------------------------------------------------------------|
Ab|-----------------------------------------------------------------------|
Db|-----------------------------------------------------------------------|





************************************

| /   slide up
| \   slide down
| h   hammer-on
| p   pull-off
| ~   vibrato
| +   harmonic
| x   Mute note
| b   Bend
| pb  Pre-bend
| br  Bend release
| pbr Pre-bend release
| brb Bend release bend

************************************
comments
We did not receive enough feedback on this tab! Please rate:
print report bad tab
1 2 3 4 5
I want to post or [tab]
guest
You may want to rate the tab now too:
select rating
Please do not post tabs as comments. Select "correction" instead!