Oops, an error
Loading. Please wait.

Seattle Tab

9,379 views 3 this week
3 commentsread comments
1 2 3 4 5
excellent!
x 5
add to favorites
launch autoscroll
font size
0
reset
how to read this tab
guitar tuner
Autoscroll
slow
fast
+/-
esc
set tempo
stop
Help us to improve Ultimate-Guitar.com Take our survey!
×
Author
Difficulty
novice
This is a pretty easy four note song.  Figured it by ear.  Message me if you have any complaints.

intro (0:00-0:20): 

I'm not sure if this is a bass part or not...regardless, it sounds right.
e---------------------------------------------------------------------------|
b---------------------------------------------------------------------------|
g---------------------------------------------------------------------------|
d---------------------------------------------------------------------------|
a---------------------------------------------------------------------------|
E-4-4--4-4---4-7-7--7-7--0-2-2--2-2--0-2-2--2-2-------------(repeat)--------|

verse (0:20-0:59)
(guitar comes in with singing...)

   (Ab min)  (Cb)  (Gb)
e-------------2-----------------------------------------------------------------|
b---------2---2-----------------------------------------------------------------|
g-4-------4---3--~--------------------------------------------------------------|
d-6-------4---4--~--------------------------------------------------------------|
a-6-------2---4--~-(let Gb ring...)---------------------------------------------|
e-4-----------2--~-------------(repeat x4---------------------------------------|

Chorus intro (1:00-1:09)

"well maybe I'm out of luck, or maybe I'm just..." (begin picking...)
 
                                                                    (palm mute chords here...)
e-------------------------------------------7-----------------------------------|
b-----0---------------2---------------------7-----------------------------------|
g----1-1---1--------3---3---3--2------------8------------x-x-x------------------|
d---2----2--------4-------4----4------------9------------x-x-x------------------|
a--2------------4--------------4--(strum x8)--9--(strum x6)--x-x-x--------------|
e-0-----------2----------------2------------7------------x-x-x------------------|

Chorus (1:10-1:29)

"rain on my hopes..."                                "rain on everything that I know..."
                                    "rain on my soul..."
     E                             Cb                             Abmin    Gb
e----------------------------------------------------------------------------|
b-0-------------2-------------4------2---------------------------------------|
g-1-------------4-------------4------3---------------------------------------|
d-2-------------4-------------6------4----(repeat x2)------------------------|
a-2-------------2-------------6------4---------------------------------------|
e-0---------------------------4------2---------------------------------------|

Chorus outro (1:30-1:39)

strum chords once and let ring...
     E             Cb             Abmin         Gb
e-0~-----2~------4~-------2~----------------------------------------------|
b-0~-----2~------4~-------2~----------------------------------------------|
g-1~-----4~------4~-------3~-----3----------------------------------------|
d-2~-----4~------6~-------4~-------4--------------------------------------|
a-2~-----2~------6~-------4~---------4~-----------------------------------|
e-0~-------------4~-------2~----------------------------------------------|

Verse 2 (1:40-2:09)

   (Ab min)  (Cb)  (Gb)
e-------------2-----------------------------------------------------------------|
b---------2---2-----------------------------------------------------------------|
g-4-------4---3--~--------------------------------------------------------------|
d-6-------4---4--~--------------------------------------------------------------|
a-6-------2---4--~-(let Gb ring...)---------------------------------------------|
e-4-----------2--~-------------(repeat x4)--------------------------------------|

Chorus Intro 2 (2:11-2:20)
                                                                    (palm mute chords here...)
e-------------------------------------------7-----------------------------------|
b-----0---------------2---------------------7-----------------------------------|
g----1-1---1--------3---3---3--2------------8------------x-x-x------------------|
d---2----2--------4-------4----4------------9------------x-x-x------------------|
a--2------------4--------------4--(strum x8)--9--(strum x6)--x-x-x--------------|
e-0-----------2----------------2------------7------------x-x-x------------------|

Chorus 2 (2:21-2:58)

"rain on my hopes..."                                "rain on everything that I know..."
                                    "rain on my soul..."
     E                             Cb                             Abmin    Gb
e----------------------------------------------------------------------------|
b-0-------------2-------------4------2---------------------------------------|
g-1-------------4-------------4------3---------------------------------------|
d-2-------------4-------------6------4----(repeat x4)------------------------|
a-2-------------2-------------6------4---------------------------------------|
e-0---------------------------4------2---------------------------------------|

Breakdown (3:00-3:19)
  
 (all chords played on a heavy downstroke 5 times)
 Abmin        Cb           Gb
e--------7------2--------------------------------------------------------------|
b-4------7------2--------------------------------------------------------------|
g-4------8------3--------------(repeat)----------------------------------------|
d-6------9------4--------------------------------------------------------------|
a-6-(x5)--9-(x5)--4-(x10)------------------------------------------------------|
e-4------7------2--------------------------------------------------------------|

Chorus 3 (3:20-3:58)

"rain on my hopes..."                                "rain on everything that I know..."
                                    "rain on my soul..."
     E                             Cb                             Abmin    Gb
e----------------------------------------------------------------------------|
b-0-------------2-------------4------2---------------------------------------|
g-1-------------4-------------4------3---------------------------------------|
d-2-------------4-------------6------4----(repeat x4)------------------------|
a-2-------------2-------------6------4---------------------------------------|
e-0---------------------------4------2---------------------------------------|

Song Outro (3:59-4:30 [end])

Chorus 2 (2:21-2:58)

"ohh ohh ohh...etc"

     E                             Cb                             Abmin    Gb
e----------------------------------------------------------------------------|
b-0-------------2-------------4------2---------------------------------------|
g-1-------------4-------------4------3---------------------------------------|
d-2-------------4-------------6------4----(repeat x2)------------------------|
a-2-------------2-------------6------4---------------------------------------|
e-0---------------------------4------2---------------------------------------|


ends on strumming E, Cb, Abmin, and Gb

The End
Hope you enjoyed.  This was my first tab so forgive me for my mistake
Suggest correction
comments
print report bad tab
3 comments total.
0 reply
loganchadde 42 wrote on June 17 2008, 01:17 pm

Just a couple of technicalities here:

First, The Classic Crime always uses Eb (every string half-step down) or Dropped Db tuning. However, the notes you have here are right, since when they play this is Eb, they play everything a fret higher then what you have here. So, for this song, it doesn't make a difference. Just thought I'd point that out to you in case you want to do some future Classic Crime tabs (please do!).

Second, there is no such thing as a Cb. The "x244xx" chord is a B. "x133xx" is a B flat, and so on. Also just for future reference!

Thanks so much for doing Classic Crime tabbing though, we need some more of it. The Silver Cord (7/22/08) is going to be a great album.

0 reply
wongtong 87 wrote on July 9 2008, 04:23 am

Nicely done :)

0 reply
wongtong 87 wrote on July 9 2008, 04:46 am

The only concern I have is during the chorus intro:

e--------------------------------------------------------|
b--------------------------------------------------------|
g----1--------------3---------4-------------2------------|
d---2--2----------4---4-------6-------------4------------|
a--2----2-------4-------4-----6--(strumx8)--4-(strum x8)-|
e-0-----------2---------------4-------------2------------|

guest
You may want to rate the tab now too:
select rating
Please do not post tabs as comments. Select "correction" instead!