Oops, an error
Loading. Please wait.

The Ascent Tab

version 3
version 3

Whole song

Interactive

135 views 1 this week
no commentswrite comment
1 2 3 4 5
please rate
add to favorites
launch autoscroll
font size
0
reset
how to read this tab
guitar tuner
Tab Pro tools
  • play this tab
  • loop segment
  • change instrument
  • show fretboard
  • metronome
×
Best way to learn
"The Ascent"
Autoscroll
slow
fast
+/-
esc
set tempo
stop
Contributor
Difficulty
Tuning
Capo
novice
D A D G B E
1st fret
-------------------------------------------------------------------------------
                             THE ASCENT - The Classic Crime
-------------------------------------------------------------------------------

Guitar 1 Tuning: Drop D, Capo 1
Guitar 2 Tuning: Standard, Capo 1 
(tabbed relative to capo)

Both guitars use heavy reverb


Guitar 1:
                           4x                        4x
e|---------------------------|--------------------------|
B|---------------------------|--------------1-----------|
G|--------0-----5------0-----|--------0-----------0-----|
D|-----3-----3-----3------3--|-----3-----3-----3-----3--|
A|--5------------------------|--3-----------------------|
D|---------------------------|--------------------------|

Repeat Guitar 1 while Guitar 2 plays this part:

e|----------------------------|-------------------------------|
B|----------------------------|-------------------------------|
G|----------------------------|-------------------------------|
D|---------------------/10~---|-------------------------------|
A|--/5--/7---/8---/10---------|--/5---/7----/8----/10----\3~--|
E|----------------------------|-------------------------------|

e|------------------------------------------------------|
B|------------------------------------------------------|
G|------------------------------------------------------|
D|-------------------/10~---10-10-10-10-10-10-10-10-10--|
A|--/5--/7--/8--/10-------------------------------------|
E|------------------------------------------------------|


Then Guitars 1 & 2 play this next part 4 times each

Guitar 1:

e|---------------------------------------------------|
B|---------------------------------------------------|
G|---------------------------------------------------|
D|--8-8-8-8-8-8-8-8-8-8-8-8-8-8-8-8-8-8-8-8-8-8-8-8--|
A|--8-8-8-8-8-8-8-8-8-8-8-8-8-8-8-8-8-8-8-8-8-8-8-8--|
D|--8-8-8-8-8-8-8-8-8-8-8-8-8-8-8-8-8-8-8-8-8-8-8-8--|

e|-------------------------------------------------|------------------------------------------------|
B|-------------------------------------------------|------------------------------------------------|
G|-------------------------------------------------|------------------------------------------------|
D|-0-0-0-0-0-0-0-0-0-0-0-0-0-0-0-0-0-0-0-0-0-0-0-0-|-10-10-10-10-10-10-10-10-10-10-10-10-10-10-10-10|
A|-0-0-0-0-0-0-0-0-0-0-0-0-0-0-0-0-0-0-0-0-0-0-0-0-|-10-10-10-10-10-10-10-10-10-10-10-10-10-10-10-10|
E|-0-0-0-0-0-0-0-0-0-0-0-0-0-0-0-0-0-0-0-0-0-0-0-0-|-10-10-10-10-10-10-10-10-10-10-10-10-10-10-10-10|

**on the last time, fret at 3 instead of 10.


Guitar 2:

e|----------------------------------------------------------------|
B|-1/3-3-3-3-3-3-3--3/5-5-5-5-5-5-5--5/6-6-6-6-6-6--6/8-8-8-8-8-8-|
G|----------------------------------------------------------------|
D|----------------------------------------------------------------|
A|----------------------------------------------------------------|
E|----------------------------------------------------------------|

e|------8----------8---------8----------8----|-10--10--12--12--13--13--12--12---|
B|-8/10---10--8/10---10-8/10---10--8/10---10-|---10--10--10--10--10--10--10--10-|
G|-------------------------------------------|----------------------------------|
D|-------------------------------------------|----------------------------------|
A|-------------------------------------------|----------------------------------|
D|-------------------------------------------|----------------------------------|



************************************

| /   slide up
| \   slide down
| h   hammer-on
| p   pull-off
| ~   vibrato
| +   harmonic
| x   Mute note
| b   Bend
| pb  Pre-bend
| br  Bend release
| pbr Pre-bend release
| brb Bend release bend

************************************
comments
We did not receive enough feedback on this tab! Please rate:
print report bad tab
1 2 3 4 5
I want to post or [tab]
guest
You may want to rate the tab now too:
select rating
Please do not post tabs as comments. Select "correction" instead!