Oops, an error
Loading. Please wait.

The Beginning Tab

version 1
version 1

Whole song

2,246 views 1 this week
3 commentsread comments
1 2 3 4 5
accurate
x 1
add to favorites
launch autoscroll
font size
0
reset
how to read this tab
guitar tuner
Tab Pro tools
  • play this tab
  • loop segment
  • change instrument
  • show fretboard
  • metronome
Autoscroll
slow
fast
+/-
esc
set tempo
stop
Contributor
Difficulty
Tuning
intermediate
D A D G B E
Hey! This is my first time making a tab so
i'm sorry if its not the best. Please help if
you see any mistakes or find and easier way to
play the chords(they are quite awkward for transitioning)
Thank you and enjoy!

Drop D Tuning


"I left my heart in a plastic box..." :00-:56
Guitar I
E|-----------------------------------------------------------------|
B|---------3---------------3---------------3---------------3-------|
G|-----2-------2-------2-------2-------2-------2-------2-------2---| x7
D|---4---4---4---4---4---4---4---4---5---5---5---5---5---5---5---5-|
A|-5---------------5---------------5---------------5---------------|
E|-----------------------------------------------------------------|

Guitar II
E|-----------------------------------------------------------------|
B|-5--3-5--3-5-7--5--3---5-3-5--3-5--7--5--3-----------------------|
G|--------------------------------------------2--------------------|
D|-----------------------------------------------------------------|
A|-----------------------------------------------------------------|
E|-----------------------------------------------------------------|


"The sea..." :57-1:13
Guitar I
E|-----------------------------------------------------------------|
B|-----------------------------------------------------------------|
G|-----------------------------------------------------------------|x2
D|-0---------------------------------5-----------------------------|
A|-0---------------------------------5-----------------------------|
E|-0x16------------------------------5x16--------------------------|
PM . . . . . . . . . . . . . . . . . . . . . . . . . . . . . . . .

Guitar II
E|-x---------------------------------x-----------------------------|
B|-3---------------------------------3-----------------------------|
G|-2---------------------------------2-----------------------------|x2
D|-4---------------------------------5-----------------------------|
A|-5---------------------------------5-----------------------------|
E|-0---------------------------------0-----------------------------|
Let Ring.


"I miss the Pacific Ocean..." 1:13-1:45
Guitar I
E|-----------------------------------------------------------------|
B|-----------------------------------------------------------------|
G|-----------------------------------------------------------------|
D|-0---------------------------------5-----------------------------|
A|-0---------------------------------5-----------------------------|
E|-0---------------------------------5-----------------------------|
Listen to song for strum pattern

Guitar II
E|-x---------------------------------x-----------------------------|
B|-3---------------------------------3-----------------------------|
G|-2---------------------------------2-----------------------------|
D|-4---------------------------------5-----------------------------|
A|-5---------------------------------5-----------------------------|
E|-0---------------------------------0-----------------------------|
Listen to song for strum pattern


"Well I found the cure..." 1:45-1:53
Guitar I
E|-----------------------------------------------------------------|
B|-----------------------------------------------------------------|
G|-----------------------------------------------------------------|
D|-7---------------------------------5--------------5--------------|
A|-7---------------------------------5--------------5--------------|
E|-7---------------------------------5--------------5--------------|
Let Ring

Guitar II
E|-0---------------------------------x--------------x--------------|
B|-2---------------------------------3--------------3--------------|
G|-2---------------------------------2--------------2--------------|
D|-2---------------------------------5--------------5--------------|
A|-0---------------------------------5--------------5--------------|
E|-x---------------------------------0--------------0--------------|
Let Ring.


"You oh, oh oh...." 1:54-2:25
Guitar I
E|-----------------------------------------------------------------|
B|-----------------------------------------------------------------|
G|-----------------------------------------------------------------|
D|-0---------------------------------5-----------------------------|
A|-0---------------------------------5-----------------------------|
E|-0---------------------------------5-----------------------------|
Listen to song for strum pattern

Guitar II
E|-x---------------------------------x-----------------------------|
B|-3---------------------------------3-----------------------------|
G|-2---------------------------------2-----------------------------|
D|-4---------------------------------5-----------------------------|
A|-5---------------------------------5-----------------------------|
E|-0---------------------------------0-----------------------------|
Listen to song for strum pattern


"If a simple seed..." 2:25-2:57
Guitar I/II
E|-0---------------------------------x--------------x--------------|
B|-2---------------------------------3--------------3--------------|
G|-2---------------------------------2--------------2--------------|
D|-2---------------------------------5--------------4--------------|
A|-0---------------------------------5--------------5--------------|
E|-x---------------------------------0--------------0--------------|
Let Ring.


"Let her go..." 2:57-3:13
Guitar I/II
E|-----------------------------------------------------------------|
B|-----------------------------------------------------------------|
G|-----------------------------------------------------------------|x2
D|-7---------------------------------5--------------0--------------|
A|-7---------------------------------5--------------0--------------|
E|-7x16------------------------------5x8------------0x8------------|
PM . . . . . . . . . . . . . . . . . . . . . . . . . . . . . . . .


"Let her go..." 3:13-4:32
Guitar I
E|-----------------------------------------------------------------|
B|-----------------------------------------------------------------|
G|-----------------------------------------------------------------|
D|-7---------------------------------5--------------0--------------|
A|-7---------------------------------5--------------0--------------|
E|-7---------------------------------5--------------0--------------|

Guitar I/II
E|-0---------------------------------x--------------x--------------|
B|-2---------------------------------3--------------3--------------|
G|-2---------------------------------2--------------2--------------|
D|-2---------------------------------5--------------4--------------|
A|-0---------------------------------5--------------5--------------|
E|-x---------------------------------0--------------0--------------|


Guitar Solo 3:45-4:32

E|-------------------------------------------------------------------|
B|---------------------------------9-8-------------9-8---------------|
G|-10--8-10--8-10/--12--10--8-----------10--8-----------10--8--------|x2
D|---------------------------10-8------------10-8------------10-8----|
A|-------------------------------------------------------------------|
E|-------------------------------------------------------------------|

E|---------------------------------------------------------------------------------|
B|-11-11-11-11-11-11-11-11-11-11-11-11-11-11-11-11-9-9-9-9-9-9-9-9-8-8-8-8-8-8-8-8-|
G|-----------------------------------------------------------------8-8-8-8-8-8-8-8-|
D|---------------------------------------------------------------------------------|
A|---------------------------------------------------------------------------------|
E|---------------------------------------------------------------------------------|

E|---------------------------------------------------------------------------------|
B|-----------------------------------------------------------------8-8-8-8-8-8-8-8-|
G|-10-10-10-10-10-10-10-10-10-10-10-10-10-10-10-10-8-8-8-8-8-8-8-8-----------------|x2
D|---------------------------------------------------------------------------------|
A|---------------------------------------------------------------------------------|
E|---------------------------------------------------------------------------------|


"I left my heart in a plastic box..." 4:32-End
Guitar I
E|-----------------------------------------------------------------|
B|---------3---------------3---------------3---------------3-------|
G|-----2-------2-------2-------2-------2-------2-------2-------2---| x2
D|---4---4---4---4---4---4---4---4---5---5---5---5---5---5---5---5-|
A|-5---------------5---------------5---------------5---------------|
E|-----------------------------------------------------------------|

Guitar I
E|-x--------------|
B|-3--------------|
G|-2--------------|
D|-4--------------|
A|-5--------------|
E|-0--------------|
Let Ring.
comments
We did not receive enough feedback on this tab! Please rate:
print report bad tab
1 2 3 4 5
3 comments total.
0 reply
DMell123 wrote on July 25 2008, 12:15 pm

I forgot to add Capo on 1 :(

0 reply
EKCender429 wrote on July 26 2008, 10:09 am

thanks for pointing out the capo

our else your tab would have a bad rating by now

0 reply
EKCender429 wrote on July 26 2008, 10:11 am

also you can play it without the capo in half-step-down standard

I want to post or [tab]
guest
You may want to rate the tab now too:
select rating
Please do not post tabs as comments. Select "correction" instead!