Oops, an error
Loading. Please wait.

The Test Tab

version 1
version 1

Whole song

8,711 views 1 this week
2 commentsread comments
1 2 3 4 5
accurate
x 3
add to favorites
launch autoscroll
font size
0
reset
how to read this tab
guitar tuner
Tab Pro tools
  • play this tab
  • loop segment
  • change instrument
  • show fretboard
  • metronome
Autoscroll
slow
fast
+/-
esc
set tempo
stop
Difficulty
intermediate
This is my first tab...so dont get mad if i screwed something up...this is pretty 
though...listen to the song for when to change chords and all that


Intro:

E)------2--6-----2--6-----2--6-7-2--------------------------|
B)---4--------4--------4------------------------------------|
G)----------------------------------------------------------| x2
D)----------------------------------------------------------|
A)----------------------------------------------------------|
E)----------------------------------------------------------|

These are the chords played at the beginning
B F# B F# B F# G# B F#

Verse:
"All I can see is as far as the headlights can show me..."
E)-------------------------------------------2-------1--------|
B)------------------------------------------------------------|
G)-----------3-----------3-----------3h4----------------------| x2
D)-----2--4--------2--4--------2--4-------4-------2--------2--|
A)--4-----------4-----------4------------------4--------4-----|
E)------------------------------------------------------------|


PreChorus:
"As I grip the wheel and drift away..."

B F# B F# B F# G# C#

Chorus:
"So heres to the promise"
B F# B F$ B F# G# B F#

same for verse 2 and the 2nd chorus I just can't figure out the bridge i'll be working 
that...but for now enjoy
comments
We did not receive enough feedback on this tab! Please rate:
print report bad tab
1 2 3 4 5
2 comments total.
0 reply
Superchic975 wrote on February 4 2008, 11:25 pm

its possible that this song (like some of their others) is in Db tuning >every string is tuned down a half-step<

here is what i think is the correct intro in Db:

E)---------7--------7--------7--8--7------|
B)------8--8-----8--8-----8--8--8--8------|
G)---9--9-----9--9-----9--9-----------9---| x6
D)---9--------9--------9------------------|
A)----------------------------------------|
E)----------------------------------------|

after 2 of the 6 reps a second guitar comes in, but this continues til the verse starts.

also, i dont know what the chords you used are, so if ya could put them in, that would be sweet. Shmanks a bunch.

0 reply
P-Hanna wrote on December 16 2008, 02:31 am

superchic is correct, its tuned down half a step, listen to how low the first note is on the verse. im also working out a tab for this so hopefully we can play off eachothers entrys

I want to post or [tab]
guest
You may want to rate the tab now too:
select rating
Please do not post tabs as comments. Select "correction" instead!