Oops, an error
Loading. Please wait.

The Test Tab

version 2
version 2

Whole song

10,411 views 1 this week
2 commentsread comments
1 2 3 4 5
x 7
add to favorites
launch autoscroll
font size
0
reset
how to read this tab
guitar tuner
Autoscroll
slow
fast
+/-
esc
set tempo
stop
Help us to improve Ultimate-Guitar.com Take our survey!
×
Author
-------------------------------------------------------------------------------
                             The Test - The Classic Crime
-------------------------------------------------------------------------------
Tabbed by:P-Hanna
Email:p.hanna@yahoo.com

Tuning:half step down

**guitar 1**
             [[ Finger Picked ]]
e|-0--0--7--0--0--7--0--0--7--8--7--0-----------------------|
B|-0--8--8--0--8--8--0--8--8--8--8--8-----------------------|
G|----------------------------------------------------------|
D|----------------------------------------------------------|  X2
A|----------------------------------------------------------|
E|----------------------------------------------------------|

_________________________________________________________________________________________________
 AFTER GUITAR ONE HAS PLAYED THE INTRO PIECE (above) TWICE, THE SECOND GUITAR COMES  IN        
 AND PLAYS IN UNISON WITH GUITAR ONE ((THE TIMING IS LINED UP))

**Guitar 2**
                    [[ Strummed ]]
   v  ^ v ^ v  ^ v ^ v  ^ v ^ v  ^ v ^                            _
e|-3--3-3-3-3--3-3-3-3--3-3-3-3--3-3-3----------------------|      }
B|-3--3-3-3-3--3-3-3-3--3-3-3-3--3-3-3----------------------|      }
G|----------------------------------------------------------|      }
D|-2--2-2-2-2--2-2-2----------------------------------------|      }
A|-3--3-3-3-3--3-3-3-2--2-2-2-2--2-2-2----------------------|      }
E|-------------------3--3-3-3-3--2-2-2----------------------|      }
                                                                   }
**guitar 1**                                                       } X4  PLAY IN UNISON
             [[ Finger Picked ]]                                   }
e|-0--0--7--0--0--7--0--0--7--8--7--0-----------------------|      }
B|-0--8--8--0--8--8--0--8--8--8--8--8-----------------------|      }
G|----------------------------------------------------------|      }
D|----------------------------------------------------------|      }
A|----------------------------------------------------------|      }
E|----------------------------------------------------------|     _}

_________________________________________________________________________________________________
                                               VERSE

**guitar 1**
             [[ Finger Picked ]]
e|------------------------------------3-----2---------------|
B|-------3---------3--------1h3p1-------1-----1-------------|
G|-----0---------0--------2-------2---2---2-2---2-----------|
D|---2---------2--------2-----------2-----------------------|  X2
A|--------------------0-------------------------------------|
E|-0---------0--------0-------------------------------------|

_________________________________________________________________________________________________
                                               PRECHORUS

**Guitar 2**
                    [[ Strummed ]]
   v  ^ v ^ v  ^ v ^ v  ^ v ^ v  ^ v ^                            
e|-3--3-3-3-3--3-3-3-3--3-3-3-3--3-3-3----------------------|      
B|-3--3-3-3-3--3-3-3-3--3-3-3-3--3-3-3----------------------|      
G|----------------------------------------------------------|      
D|-2--2-2-2-2--2-2-2----------------------------------------|    X2  
A|-3--3-3-3-3--3-3-3-2--2-2-2-2--2-2-2----------------------|      
E|-------------------3--3-3-3-3--2-2-2----------------------|      


   v  ^ v ^ v  ^ v ^ v  ^ v ^ v  ^ v ^ v  ^ v ^ v  ^ v ^ v  ^ v ^                           
e|-3--3-3-3-3--3-3-3-3--3-3-3-5--5-5-5-5--5-5-5-5--5-5-5-5--5-5-5-----------|      
B|-3--3-3-3-3--3-3-3-3--3-3-3-5--5-5-5-5--5-5-5-5--5-5-5-5--5-5-5-----------| 
G|----------------------------6--6-6-6-6--6-6-6-6--6-6-6-6--6-6-6-----------|      
D|-2--2-2-2-2--2-2-2----------7--7-7-7-7--7-7-7-7--7-7-7-7--7-7-7-----------|      
A|-3--3-3-3-3--3-3-3-2--2-2-2-7--7-7-7-7--7-7-7-7--7-7-7-7--7-7-7-----------|      
E|-------------------3--3-3-3-5--5-5-5-5--5-5-5-5--5-5-5-5--5-5-5-----------| 


   ^ ^ ^ ^ v^ ^ ^ ^ ^ v^
e|-2-2-2-2-xx-2-2-2-2-xx--------------------------------------|
B|-3-3-3-3-xx-3-3-3-3-xx--------------------------------------|
G|-2-2-2-2-xx-2-2-2-2-xx--------------------------------------|
D|----------------------------------------------------------|  
A|----------------------------------------------------------|
E|----------------------------------------------------------|


_________________________________________________________________________________________________
                                                  CHORUS

**Guitar 2**
                    [[ Strummed ]]
   v  ^ v ^ v  ^ v ^ v  ^ v ^ v  ^ v ^                            
e|-3--3-3-3-3--3-3-3-3--3-3-3-3--3-3-3----------------------|      
B|-3--3-3-3-3--3-3-3-3--3-3-3-3--3-3-3----------------------|      
G|----------------------------------------------------------|      
D|-2--2-2-2-2--2-2-2----------------------------------------|    X2  
A|-3--3-3-3-3--3-3-3-2--2-2-2-2--2-2-2----------------------|      
E|-------------------3--3-3-3-3--2-2-2----------------------|      


   v  ^ v ^ v  ^ v ^ v  ^ v ^ v  ^ v ^ v  ^ v ^ v  ^ v ^ v  ^ v ^                           
e|-3--3-3-3-3--3-3-3-3--3-3-3-5--5-5-5-5--5-5-5-5--5-5-5-5--5-5-5-----------|      
B|-3--3-3-3-3--3-3-3-3--3-3-3-5--5-5-5-5--5-5-5-5--5-5-5-5--5-5-5-----------| 
G|----------------------------6--6-6-6-6--6-6-6-6--6-6-6-6--6-6-6-----------|      
D|-2--2-2-2-2--2-2-2----------7--7-7-7-7--7-7-7-7--7-7-7-7--7-7-7-----------|      
A|-3--3-3-3-3--3-3-3-2--2-2-2-7--7-7-7-7--7-7-7-7--7-7-7-7--7-7-7-----------|      
E|-------------------3--3-3-3-5--5-5-5-5--5-5-5-5--5-5-5-5--5-5-5-----------| 




| /  slide up
| \  slide down
| h  hammer-on
| p  pull-off
| ~  vibrato
| +  harmonic
| x  Mute note
| v Strum Down
| ^ Strum Up
=============================================================
Suggest correction
comments
print report bad tab
2 comments total.
0 reply
Unkempt 42 Jan 06, 2009 07:58 AM

I LOVE YOU, THANK YOU!

0 reply
youguyyou 10 May 25, 2009 11:41 PM

You are my most favorite human!

guest
You may want to rate the tab now too:
select rating
Wanna post a correction for this tab? Suggest correction