Oops, an error
Loading. Please wait.

We All Look Elsewhere Tab

3,381 views 3 this week
4 commentsread comments
1 2 3 4 5
please rate
add to favorites
launch autoscroll
font size
0
reset
how to read this tab
guitar tuner
Tab Pro tools
  • play this tab
  • loop segment
  • change instrument
  • show fretboard
  • metronome
×
Best way to learn
"We All Look Elsewhere"
Autoscroll
slow
fast
+/-
esc
set tempo
stop
Contributor
-------------------------------------------------------------------------------
                             WE ALL LOOK ELSEWHERE - The Classic Crime
-------------------------------------------------------------------------------
Tabbed by: Tranx
Email: Tranx13@gmail.com


| /  slide up
| \  slide down
| h  hammer-on
| p  pull-off
| ~  vibrato
| +  harmonic
| x  Mute note
| ^  Equivilent Place on dual guitar parts
| AH Artificial Harmonic

It's all in order, so you can just stick the auto-scroll on.

Tuning: Eb Ab Db Gb Bb eb
Barlines = 2 Bars at 85 bpm (It's in 6/8)
Intro Riff x 2


eb|--------------------------------|-----------------------------------|
Bb|--------------------------------|-----------------------------------|
Gb|9---9-9---------9---9-9---------|9----9--9----------9----9--9-------|
Db|9---9-9---------9---9-9---------|10---10-10---------10---10-10------|
Ab|7---7-7---------7---7-7---------|10---10-10---------10---10-10------|
Eb|--------------------------------|8----8--8----------8----8--8-------|

Intro Solo (2nd Time Only)

eb|--------------------------------|-----------------------------------|
Bb|--------------------------------|12-------8---------12--------8-7---|
Gb|-----------7h9~~--------7-9br7h9|-----9--------9----------9-------7\|
Db|--------7h9------------9--------|-----------------------------------|
Ab|--------------------------------|-----------------------------------|
Eb|--------------------------------|-----------------------------------|

Verse

  P.M------------------------------------------------|
eb|--------------------------------------------------|
Bb|--------------------------------------------------|
Gb|----------------------------------2-4-2-----------|
Db|2-2-2-2-2-2-2-2-2-2-2-2-2-2-2-4-5-------5-4-2-0---|
Ab|--------------------------------------------------|
Eb|--------------------------------------------------|

eb|-------------------------------------------------------------------|
Bb|-------------------------------------------------------------------|
Gb|--------5-5-4-4---------5-5-4-4---------5-5-4-4--------5-5-4-4-----|
Db|--------5-5-5-5---------5-5-5-5---------5-5-5-5--------5-5-5-5-----|
Ab|-------------------------------------------------------------------|
Eb|-------------------------------------------------------------------|


  P.M------------------------------------------------|
eb|--------------------------------------------------|
Bb|--------------------------------------------------|
Gb|----------2-4-2-------------------2-4-2-----------|
Db|2-2-2-4-5-------5-4-2-0-2-2-2-4-5-------5-4-2-0---|
Ab|--------------------------------------------------|
Eb|--------------------------------------------------|

eb|-------------------------------------------------------------------|
Bb|-------------------------------------------------------------------|
Gb|--------5-5-4-4---------5-5-4-4---------5-5-4-4--------5-5-4-4-----|
Db|--------5-5-5-5---------5-5-5-5---------5-5-5-5--------5-5-5-5-----|
Ab|-------------------------------------------------------------------|
Eb|-------------------------------------------------------------------|

Chorus Riff x 2
                  ^                ^
eb|--------------------------------|-----------------------------------|
Bb|--------------------------------|-----------------------------------|
Gb|9---9-9---------9---9-9---------|9----9--9----------9----9--9-------|
Db|9---9-9---------9---9-9---------|10---10-10---------10---10-10------|
Ab|7---7-7---------7---7-7---------|10---10-10---------10---10-10------|
Eb|--------------------------------|8----8--8----------8----8--8-------|

Chorus Lead (2nd Time Only)
                    ^                                   ^
eb|--------------------------------------------------------------------------|
Bb|--------------------------------------------------------------------------|
Gb|-------9-11-11-11-9------------------------9-14-14-14-9-------------------|
Db|--------------------------------------------------------------------------|
Ab|-------7--9--9--9-7------------------------7-12-12-12-7-------------------|
Eb|--------------------------------------------------------------------------|

Solo
                                         Hold 14 until the next bar
eb|----------------------------------|----------------------------------------|
Bb|/17-------15----------------------|----------------------------------------|
Gb|----14-16----16-14----------------|----------------------------------------|
Db|-------------------17-16----------|16\14-----------------------------------|
Ab|-------------------------17-11-17-|----------------------------------------|
Eb|----------------------------------|----------------------------------------|

eb|-----------------------------------------|---------------------------------|
Bb|12h15/17-------15------------------------|---------------------------------|
Gb|---------14-16----16-14------------------|---------------------------------|
Db|------------------------17-16----------16|-14-12---------------------------|
Ab|------------------------------17-11-17---|---------------------------------|
Eb|-----------------------------------------|---------------------------------|

Chords under the solo

eb|-----------------------------------------|----------------------------------------|
Bb|-----------------------------------------|----------------------------------------|
Gb|-----------------------------------------|-5-5-4-4-x-x-4-4-x-x-x-x-5-5-4-4-x-x-4-4|
Db|5-5-5-7-7-7-9-9-9-12-12-12---------------|-5-5-5-5-x-x-5-5-x-x-x-x-5-5-5-5-x-x-5-5|
Ab|3-3-3-5-5-5-7-7-7-10-10-10---------------|----------------------------------------|
Eb|-----------------------------------------|----------------------------------------|

Palm Mute Interlude
                                           AH----|
eb|---------------------------------------------------------------------------|
Bb|----------2-4-2------------------------------------------------------------|
Gb|2-2-2-4-5-------5-4-2-0-2-2-2-4-5-4-2-0---4-5-4----------------------------|
Db|----------------------------------------2----------------------------------|
Ab|---------------------------------------------------------------------------|
Eb|---------------------------------------------------------------------------|

Vocals Enter
      PM-----------------------------------------------|       |---|       |---|       |--------------|
eb|-------------------------------------------------|-------------------------------------------------|
Bb|----------------------------------2-4-2----------|----5-5-4-4-----5-5-4-4-----5-5-4-4-----5-5-4-4--|
Gb|2-2-2-2-2-2-2-2-2-2-2-2-2-2-2-4-5--------5-4-2-0-|2-2-5-5-5-5-2-2-5-5-5-5-0-0-5-5-5-5-4-4-5-5-5-5--|
Db|-------------------------------------------------|-------------------------------------------------|
Ab|-------------------------------------------------|-------------------------------------------------|
Eb|-------------------------------------------------|-------------------------------------------------|

PM-----------------------------------------------------|       |---|       |---|       |--------------|
eb|-------------------------------------------------|-------------------------------------------------|
Bb|----------2-4-2-------------------2-4-2----------|----5-5-4-4-----5-5-4-4-----5-5-4-4-----5-5-4-4--|
Gb|2-2-2-4-5-------5-4-2-0-2-2-2-4-5--------5-4-2-0-|2-2-5-5-5-5-2-2-5-5-5-5-0-0-5-5-5-5-4-4-5-5-5-5--|
Db|-------------------------------------------------|-------------------------------------------------|
Ab|-------------------------------------------------|-------------------------------------------------|
Eb|-------------------------------------------------|-------------------------------------------------|

Chorus Riff x 2
                  ^                ^
eb|--------------------------------|-----------------------------------|
Bb|--------------------------------|-----------------------------------|
Gb|9---9-9---------9---9-9---------|9----9--9----------9----9--9-------|
Db|9---9-9---------9---9-9---------|10---10-10---------10---10-10------|
Ab|7---7-7---------7---7-7---------|10---10-10---------10---10-10------|
Eb|--------------------------------|8----8--8----------8----8--8-------|

Chorus Lead (2nd Time Only)
                    ^                                   ^
eb|--------------------------------------------------------------------------|
Bb|--------------------------------------------------------------------------|
Gb|-------9-11-11-11-9------------------------9-14-14-14-9-------------------|
Db|--------------------------------------------------------------------------|
Ab|-------7--9--9--9-7------------------------7-12-12-12-7-------------------|
Eb|--------------------------------------------------------------------------|

Bridge

eb|------------------------------------------------|------------------------------------------------|
Bb|------------------------------------------------|------------------------------------------------|
Gb|7-7-7-7-7-7-7-7-7-7-7-7-9-9-9-9-9-9-9-9-9-9-9-9-|4-4-4-4-4-4-4-4-4-4-4-4-7-7-7-7-7-7-7-7-7-7-7-7-|
Db|7-7-7-7-7-7-7-7-7-7-7-7-9-9-9-9-9-9-9-9-9-9-9-9-|5-5-5-5-5-5-5-5-5-5-5-5-7-7-7-7-7-7-7-7-7-7-7-7-|
Ab|5-5-5-5-5-5-5-5-5-5-5-5-7-7-7-7-7-7-7-7-7-7-7-7-|5-5-5-5-5-5-5-5-5-5-5-5-5-5-5-5-5-5-5-5-5-5-5-5-|
Eb|------------------------------------------------|------------------------------------------------|


    PM--------------------------------------------------------FADE-----------------------------------------------|
eb|------------------------------------------------|-------------------------------------------------------------|
Bb|------------------------------------------------|-------------------------------------------------------------|
Gb|5-----------------------------------------------|------------------------12-12-12-12-12-12\10-10-10-10-10-10--|
Db|5---5-5-5-5-5-5-5-5-5-5-9-9-9-9-9-9-9-9-9-9-9-9-|7-7-7-7-7-7-7-7-7-7-7-7--------------------------------------|
Ab|3---3-3-3-3-3-3-3-3-3-3-7-7-7-7-7-7-7-7-7-7-7-7-|5-5-5-5-5-5-5-5-5-5-5-5-10-10-10-10-10-10\8--8--8--8--8--8---|
Eb|------------------------------------------------|-------------------------------------------------------------|

eb|------------------------------------------------|------------------------------------------------|
Bb|------------------------------------------------|------------------------------------------------|
Gb|7-7-7-7-7-7-7-7-7-7-7-7-9-9-9-9-9-9-9-9-9-9-9-9-|4-4-4-4-4-4-4-4-4-4-4-4-7-7-7-7-7-7-7-7-7-7-7-7-|
Db|7-7-7-7-7-7-7-7-7-7-7-7-9-9-9-9-9-9-9-9-9-9-9-9-|5-5-5-5-5-5-5-5-5-5-5-5-7-7-7-7-7-7-7-7-7-7-7-7-|
Ab|5-5-5-5-5-5-5-5-5-5-5-5-7-7-7-7-7-7-7-7-7-7-7-7-|5-5-5-5-5-5-5-5-5-5-5-5-5-5-5-5-5-5-5-5-5-5-5-5-|
Eb|------------------------------------------------|------------------------------------------------|

    PM-----------------------------------------------------------------------------------------------|
eb|------------------------------------------------|-------------------------------------------------|
Bb|------------------------------------------------|-------------------------------------------------|
Gb|5-----------------------------------------------|-------------------------------------------------|
Db|5---5-5-5-5-5-5-5-5-5-5-9-9-9-9-9-9-9-9-9-9-9-9-|7-7-7-7-7-7-7-7-7-7-7-7-7-7-7-7-7-7-7-7-7-7-7-7--|
Ab|3---3-3-3-3-3-3-3-3-3-3-7-7-7-7-7-7-7-7-7-7-7-7-|5-5-5-5-5-5-5-5-5-5-5-5-5-5-5-5-5-5-5-5-5-5-5-5--|
Eb|------------------------------------------------|-------------------------------------------------|

Cleany Bit
                                        PM--------fade------------------------------------------------------|            Dist.
eb|----|----|----|------------------------------------------------|-----------------------------------------|
Bb|----|----|----|------------------------------------------------|-----------------------------------------|
Gb|----|----|----|------------------------------------------------|-----------------------------------------|
Db|----|----|----|------------------------------------------------|-----------------------------------------|
Ab|7-7-|5-5-|3-3-|0-----------------------5-5-5-5-5-5-5-5-5-5-5-5-|5/7---------7\5---------5\2---------2\3--|
Eb|----|----|----|------------------------------------------------|-----------------------------------------|

Chordal x 4, then another with dist.
eb|---------------------------------------------------------------------|---------------------------------------------------------------------|
Bb|---------------------------------------------------------------------|---------------------------------------------------------------------|
Gb|9-------9---9---9------9--9--9--9--9-------9---9---9------9--9--9--9-|7-------7---7---7------7--7--7--7--7-------7---7---7------7--7--7--7-|
Db|10------10--10--10-----10-10-10-10-9-------9---9---9------9--9--9--9-|7-------7---7---7------7--7--7--7--7-------7---7---7------7--7--7--7-|
Ab|10------10--10--10-----10-10-10-10-7-------7---7---7------7--7--7--7-|5-------5---5---5------5--5--5--5--5-------5---5---5------5--5--5--5-|
Eb|8-------8---8---8------8--8--8--8------------------------------------|---------------------------------------------------------------------|

Bridge

eb|------------------------------------------------|------------------------------------------------|
Bb|------------------------------------------------|------------------------------------------------|
Gb|7-7-7-7-7-7-7-7-7-7-7-7-9-9-9-9-9-9-9-9-9-9-9-9-|4-4-4-4-4-4-4-4-4-4-4-4-7-7-7-7-7-7-7-7-7-7-7-7-|
Db|7-7-7-7-7-7-7-7-7-7-7-7-9-9-9-9-9-9-9-9-9-9-9-9-|5-5-5-5-5-5-5-5-5-5-5-5-7-7-7-7-7-7-7-7-7-7-7-7-|
Ab|5-5-5-5-5-5-5-5-5-5-5-5-7-7-7-7-7-7-7-7-7-7-7-7-|5-5-5-5-5-5-5-5-5-5-5-5-5-5-5-5-5-5-5-5-5-5-5-5-|
Eb|------------------------------------------------|3-3-3-3-3-3-3-3-3-3-3-3-------------------------|


    PM--------------------------------------------------------FADE-----------------------------------------------|
eb|------------------------------------------------|-------------------------------------------------------------|
Bb|------------------------------------------------|-------------------------------------------------------------|
Gb|5-----------------------------------------------|------------------------12-12-12-12-12-12\10-10-10-10-10-10--|
Db|5---5-5-5-5-5-5-5-5-5-5-9-9-9-9-9-9-9-9-9-9-9-9-|7-7-7-7-7-7-7-7-7-7-7-7--------------------------------------|
Ab|3---3-3-3-3-3-3-3-3-3-3-7-7-7-7-7-7-7-7-7-7-7-7-|5-5-5-5-5-5-5-5-5-5-5-5-10-10-10-10-10-10\8--8--8--8--8--8---|
Eb|------------------------------------------------|-------------------------------------------------------------|

eb|------------------------------------------------|------------------------------------------------|
Bb|------------------------------------------------|------------------------------------------------|
Gb|7-7-7-7-7-7-7-7-7-7-7-7-9-9-9-9-9-9-9-9-9-9-9-9-|4-4-4-4-4-4-4-4-4-4-4-4-7-7-7-7-7-7-7-7-7-7-7-7-|
Db|7-7-7-7-7-7-7-7-7-7-7-7-9-9-9-9-9-9-9-9-9-9-9-9-|5-5-5-5-5-5-5-5-5-5-5-5-7-7-7-7-7-7-7-7-7-7-7-7-|
Ab|5-5-5-5-5-5-5-5-5-5-5-5-7-7-7-7-7-7-7-7-7-7-7-7-|5-5-5-5-5-5-5-5-5-5-5-5-5-5-5-5-5-5-5-5-5-5-5-5-|
Eb|------------------------------------------------|3-3-3-3-3-3-3-3-3-3-3-3-------------------------|

    PM-----------------------------------------------------------------------------------------------|
eb|------------------------------------------------|-------------------------------------------------|
Bb|------------------------------------------------|-------------------------------------------------|
Gb|5-----------------------------------------------|-------------------------------------------------|
Db|5---5-5-5-5-5-5-5-5-5-5-9-9-9-9-9-9-9-9-9-9-9-9-|7-7-7-7-7-7-7-7-7-7-7-7-7-7-7-7-7-7-7-7-7-7-7-7--|
Ab|3---3-3-3-3-3-3-3-3-3-3-7-7-7-7-7-7-7-7-7-7-7-7-|5-5-5-5-5-5-5-5-5-5-5-5-5-5-5-5-5-5-5-5-5-5-5-5--|
Eb|------------------------------------------------|-------------------------------------------------|

Outro

eb|--------------------------------|-----------------------------------|
Bb|--------------------------------|-----------------------------------|
Gb|9---9-9---------9---9-9---------|9---9-9----------x-9-x-9-x---9-----|
Db|9---9-9---------9---9-9---------|9---9-9----------x-9-x-9-x---9-----|
Ab|7---7-7---------7---7-7---------|7---7-7----------x-7-x-7-x-7-7-----|
Eb|--------------------------------|-----------------------------------|


===============================================================================
comments
We did not receive enough feedback on this tab! Please rate:
print report bad tab
1 2 3 4 5
4 comments total. Showing first comments.
0 reply
Holmskillet wrote on July 17 2008, 04:34 pm

awesome tab, i love classic crime and you did very well with this tab, 2 thumbs up. also on the 2nd solo where it is 17 11 17 on the Ab string it should be 17 14 17. besides that its really good!

0 reply
Tranx wrote on July 19 2008, 04:25 am

Thanks Holmskillet, I just fixed it up then.

0 reply
Still Breath wrote on March 27 2009, 05:45 pm

Good tab bro...
But this sounds better...
eb|--------------------------------------------------|
Bb|--0-0-0-0------0-0-0-0------0-0-0-0------0-0-0-0--|
Gb|--5-5-4-4------5-5-4-4------5-5-4-4------5-5-4-4--|
Db|--------------------------------------------------|
Ab|--------------------------------------------------|
Eb|---------------------------------------------------------------|

I want to post or [tab]
guest
You may want to rate the tab now too:
select rating
Please do not post tabs as comments. Select "correction" instead!