Oops, an error
Loading. Please wait.

Cricket And The Genie bass

3,298 views 30 this week
1 commentread comment
1 2 3 4 5
x 5
add to favorites
×
Save as Personal and add changes to this tab that will be seen only by you. Learn more ›
×
You can save this tab as Personal to edit and correct it or add notes. All changes will be seen only by you. Learn more »
launch autoscroll
font size
0
reset
guitar tuner
edit
Autoscroll
slow
fast
+/-
esc
set tempo
stop
The Lennon Claypool Delirium - Cricket and The Genie bass tab
Les Claypool has always tight grooves and changes them slightly all the time so I just write down the basic 
main bass line

Whole song is in triplet-feel

Intro riff
G|-------------------------------------------------------------|
D|-------------------------------------------------------------|
A|-------------------------------14--12--------15--14----------|
E|-12---12---12--14--12--15--12---------15--12--------15--14---|

G|-------------------------------------------------------------|
D|-------------------------------------------------------------|
A|--------------------------12-15-15-12-----12-15--14----------|
E|-12---12---12---14--12-15-------------14|----------15--14----|

G|-------------------------------------------------------------|
D|-------------------------------------------------------------|
A|--------------------------12-14--12--------15--14------------|
E|-12---12---12---14--12-15-----------15--12--------15--14-----|

  Verse                         A  pill for eve-ry   prob-
G|-------------------------------------------------------------|
D|-------------------------------------------------------------|
A|--------------------------12--9---7---10---9---12---12-------|
E|-12---12---12---14--12-15------------------------------------|
   -lem
G|------------11-13--11----------|
D|----------------------13---11--|4x
A|--11---11----------------------|
E|-------------------------------|

G|------------4-6--4--------- ---------------------------4-6--4--------- -----------------------|
D|----------------------6---4-------------5------------------------6---4-------------5-----4----|
A|--4---4----------------------4---4---4-------4---4----------------------4---4---4-------------|
E|----------------------------------------------------------------------------------------------|

Back to the intro riff and verse after it
->
G|------------4-6--4--------- ---------------------------4-6--4--------- -----------------------|
D|----------------------6---4-------------5------------------------6---4-------------5-----2----|
A|--4---4----------------------4---4---4-------4---4----------------------4---4---4-------------|
E|----------------------------------------------------------------------------------------------|
 
   So remember when you need a hug...
G|--------------11-----------------11------------------12-------------------12----|
D|------------11--11-------------11--11--------------12---12--------------12---12-|
A|-9---9---9----------9---9---9---------10---10---10---------10---10---10---------|
E|--------------------------------------------------------------------------------|

This riff is in 10/4 time signature, which is cool 
G|------------------4-----2---------------------------2---|
D|-----4---3---2------4-3----------4---3---2------4-3-----|
A|--2---------------------------2---------------2---------|x2
E|--------------------------------------------------------|

Intro riff again, the verses and 10/4 riff and so on. Then comes a bass and drum solo type of thing and a 
flute solo

G|-------------------------------------2----|
D|-------4-xxx-3-xxx-2-xxx-----4-xx3-xx-----|
A|-2-xxx-------------------2-xx----------xx-|x2
E|------------------------------------------|

When the flute solo starts, Key rises by a minor third

G|------------------------5---------------------------5---|
D|-----7---6---5------7-6----------7---6---5------7-6-----|
A|--5---------------5-----------5---------------5---------|
E|--------------------------------------------------------|

And again...

G|-------------------------8---|
D|-----10--9---8------10-9-----|
A|--8---------------8----------|
E|-----------------------------|

And again.......
                                                               Solo ends
G|---------------------------11-----------------------|
D|-----13--12---11-----13-12--------------------------|
A|--11---------------11-------------------------------|
E|-------------------------------4--------------------|

G|----------------------------------------------------------------------------------------------------|
D|----------------------------------------------------------------------------------------------------|
A|-------------------------------------------------------------------14-14-14-14-14-14-15-15-15-15-15-|
E|-15----14---12-12-12-12-12-12-12-12-12-12-12-12-12-12-12-12-12-12-----------------------------------|

Intro riff comes again differently, so that bass only strums E-note while everything else stays same.

G|-----------------------------------------|
D|-----------------------------------------|
A|-----------------------------------------|
E|--12-12-12-12-12-12-12-12-12-12-12-12-12-|

Then verse continues normally
                                Found that bottle was emp-
G|-------------------------------------------------------------|
D|-------------------------------------------------------------|
A|-------------------------------9---7---10---9---12---12-------|
E|...-12-12-12-12-12-12-12-12-12--------------------------------|
   -ty
G|------------11-13--11----------|
D|----------------------13---11--|4x
A|--11---11----------------------|
E|-------------------------------|

G|------------4-6--4--------- ---------------------------4-6--4--------- -----------------------|
D|----------------------6---4-------------5------------------------6---4-------------5-----4----|
A|--4---4----------------------4---4---4-------4---4----------------------4---4---4-------------|
E|----------------------------------------------------------------------------------------------|
  
  Just groove something using these chords
G|--------------11-----------------11------------------12-------------------12----|
D|------------11--11-------------11--11--------------12---12--------------12---12-|
A|-9---9---9----------9---9---9---------10---10---10---------10---10---10---------|
E|--------------------------------------------------------------------------------|

Song ends with a sustained B
G|---------------------------------------------------------|
D|---------------------------------------------------------|
A|--2------------------------------------------------------|
E|---------------------------------------------------------|



Suggest correction
Creating personal tab
Creating personal tab
You can edit any tab online and save it as your Personal.

You can edit, replace or remove any tab part or add personal notes – all changes will be seen only by you.

Personal tabs can be accessed anytime from any device, even offline.
Learn more »
comments
print report bad tab
1 comment total.
0 reply
MrPsych 151 Apr 24, 2017 11:58 PM

bravo great tab

guest
You may want to rate the tab now too:
select rating
Wanna post a correction for this tab? Suggest correction