Oops, an error
Loading. Please wait.

Mr Wright intro bass

2,464 views 21 this week
2 commentsread comments
1 2 3 4 5
x 4
add to favorites
×
Save as Personal and add changes to this tab that will be seen only by you. Learn more ›
×
You can save this tab as Personal to edit and correct it or add notes. All changes will be seen only by you. Learn more »
launch autoscroll
font size
0
reset
guitar tuner
edit
Autoscroll
slow
fast
+/-
esc
set tempo
stop
Mr. Wright by The Claypool Lennon Delirium 

Intro Bass



G|------------------------------------------------------------------------------|
D|-------------15----------13---15------15-----------13---15--------------------|
A|--0-13-15----------13-15---------------------13-15----------------------------|
E|----------13----13-----------------13-----13 ---------------------------------|

G|------------------------------------------------------------------------------|
D|-------------15----------13---15------15-----------13---15--------------------|
A|--12-13-15----------13-15---------------------13-15---------------------------|
E|----------13----13-----------------13-----13 ---------------------------------|

G|------------------------------------------------------------------------------|
D|--13----------15----------13---15------15-----------13---15-------------------|
A|-----15-------------13-15---------------------13-15---------------------------|
E|--------13-13----13-----------------13-----13 --------------------------------|

G|------------------------------------------------------------------------------|
D|-------------15----------13---13----17-15-17-15-------15----------------------|
A|--12-13-15----------13-15-----------------------17-18----18-17-15-17-15-13-15-|
E|----------13----13------------------------------------------------------------|

                                     ^This part may not be perfect to how Les plays it but I just felt it made
                                      sense as it allows you to jump right back into the main line smoothly.


            
            
Suggest correction
Creating personal tab
Creating personal tab
You can edit any tab online and save it as your Personal.

You can edit, replace or remove any tab part or add personal notes – all changes will be seen only by you.

Personal tabs can be accessed anytime from any device, even offline.
Learn more »
comments
print report bad tab
2 comments total.
0 reply
i-radic 20 Jul 15, 2016 07:25 PM

This is pretty good, I've been waiting for some tabs of the new album so really anything is awesome.

0 reply
boredandglued 2,060 Aug 27, 2016 06:07 PM

Sounds pretty accurate to me. I was watching his hands, front row all night at HOB last night, particularly this and Captain Lariat

guest
You may want to rate the tab now too:
select rating
Wanna post a correction for this tab? Suggest correction