Oops, an error
Loading. Please wait.

Getting Older bass

867 views 3 this week
1 commentread comment
1 2 3 4 5
3 more votes to show rating
add to favorites
×
Save as Personal and add changes to this tab that will be seen only by you. Learn more ›
×
You can save this tab as Personal to edit and correct it or add notes. All changes will be seen only by you. Learn more »
launch autoscroll
font size
0
reset
guitar tuner
edit
Autoscroll
slow
fast
+/-
esc
set tempo
stop
Author
Difficulty
First tab, coooool song.
My name is hugh. Hope you like this one.
http://www.mergerecords.com/artists/clean

intro
|-----------------------------------------------------|
|-----------------------------------------------------|
|--7-7-7-7-7-7-7-7-7-7-7-7-7-7-7-7--------------------|
|-----------------------------------------------------|


g|-------------------------------------------------------------------------------------|--|
d|-------------------------------------------------------------------------------------|--|
a|--7-7-7-9-9-9-9-9-11-11-11-12-12-12-12-12-14-14-14-12-12-12-12-12-11-11-11-9-9-9-9-9-|--|
e|----------------------------------------------------------------------------------------|


|------------------|
|------------------|
|------------------|
|--5h7--7-7--7-7-7-|

The guitar and bass swap doing the run up the a string, take turns yeah. Then play
the b bit. And so on.

verse
|-----------------|  --|-----------------|  -|  -|-------------------|
|-----------------|  --|-----------------|  -|  -|-------------------|
|----7-9----------|  --|----7-7-7--7-7-7-|  -|  -|-------------------|
|--9-----5--5-5-5-|x2--|--9--------------|x2-|x2-|--5h7--7-7-7-7-7-7-|


chorus

|-----------------------------------------------------|
|-----------------------------------------------------|
|--7-7-7-7-7-7-7-7-7-7-7-7-7-7-7-7--------------------|
|----------------------------------7-7-7-7-7-5h7--7-7-| x lots

then back to the verse and then the intro, have a listen.
Suggest correction
Creating personal tab
Creating personal tab
You can edit any tab online and save it as your Personal.

You can edit, replace or remove any tab part or add personal notes – all changes will be seen only by you.

Personal tabs can be accessed anytime from any device, even offline.
Learn more »
Give kudos to tab author, rate the tab!
1 2 3 4 5
comments
print report bad tab
1 comment total.
0 reply
doomey22a 10 Jun 04, 2011 07:42 AM

Pretty decent. The clean rock! :)

guest
You may want to rate the tab now too:
select rating
Wanna post a correction for this tab? Suggest correction