Oops, an error
Loading. Please wait.

Jenny Chords

version 4
version 4

Whole song

Interactive

51,198 views 24 this week
2 commentsread comments
1 2 3 4 5
x 5
add to favorites
launch autoscroll
font size
0
reset
transpose
0
reset
simplify chords
display chords
guitar tuner
Autoscroll
slow
fast
+/-
esc
set tempo
stop
Author
Tuning
D# G# C# F# A# D#
Strumming
There is no strumming pattern for this song yet. and get +5 IQ
[Intro]

(C7no5th) (listen for strumming)

d#|-------|
A#|---1---|
F#|---3---|
C#|---2---|
G#|---3---|
D#|-------|

d#|--2-2-2-2-2-2-2-2-2-2-2-2-2-2-2-2---| x2
A#|--3-3-3-3-2-2-2-2-0-0-0-0-2-2-2-2---|
F#|--2-2-2-2-2-2-2-2-2-2-2-2-2-2-2-2---|
C#|--0-0-0-0-0-0-0-0-0-0-0-0-0-0-0-0---|
G#|--0-0-0-0-0-0-0-0-0-0-0-0-0-0-0-0---|
D#|--0-0-0-0-0-0-0-0-0-0-0-0-0-0-0-0---|


[Verse 1]

D
She calls me baby then she won't call me

says she adores me and then ignores me
G
Jenny, what's the problem?
D
She keeps her distance

and sits on fences

puts up resistance

and builds defenses
G
Jenny, what's the problem?


[Pre-Chorus]

Em                            A
You leave me hanging on the line
Em                         C7no5th
everytime you change your mind


[Chorus]
                    G
First you say you won't
 A                 F#m
then you say you will
     G          F#m  G
you keep me hanging on
      A              F#m
and we're not moving on
    Bm   A    G
or standing still
    A          F#m           G
Jenny, you've got me on my knees
  F#m G       A
Jenny, it's killing me


[Instrumental]

d#|--2-2-2-2-2-2-2-2-2-2-2-2-2-2-2-2---|  
A#|--3-3-3-3-2-2-2-2-0-0-0-0-2-2-2-2---|
F#|--2-2-2-2-2-2-2-2-2-2-2-2-2-2-2-2---|
C#|--0-0-0-0-0-0-0-0-0-0-0-0-0-0-0-0---|
G#|--0-0-0-0-0-0-0-0-0-0-0-0-0-0-0-0---|
D#|--0-0-0-0-0-0-0-0-0-0-0-0-0-0-0-0---|


[Verse 2]

D
She needs her own space

she's playing mind games

ends up at my place

saying that she's changed
G
Jenny, what's the problem?


[Pre-Chorus]

Em                              A
I'm trying to read between the lines
Em                        C7no5th
you got me going out of my mind


[Chorus]
                    G
First you say you won't
 A                 F#m
then you say you will
     G          F#m  G
you keep me hanging on
      A              F#m
and we're not moving on
    Bm   A    G
or standing still
    A          F#m           G
Jenny, you've got me on my knees
  F#m G       A
Jenny, it's killing me


[Bridge]

G
(oh oh oh)
It's killing me
Bm
(oh oh oh)
It's killing me
G
(oh oh oh)
     Asus       A
Jenny


[Chorus]

                    G
First you say you won't
 A                 F#m
then you say you will
     G          F#m  G
you keep me hanging on
      A              F#m
and we're not moving on
    Bm   A    G
or standing still
    A          F#m           G
Jenny, you've got me on my knees
  F#m G       A
Jenny, it's killing me

                    G
First you say you won't
 A                 F#m
then you say you will
     G          F#m  G
you keep me hanging on
      A              F#m
and we're not moving on
    Bm   A    G
or standing still
    A          F#m           G
Jenny, you've got me on my knees
  F#m G       A
Jenny, it's killing me


[Outro]

d#|-2-2-2-2-2-2-2-2-2-2-2-2-2-2-2-2--|--2-2-2-2-2-2-2-2-2-|(let ring)
A#|-3-3-3-3-2-2-2-2-0-0-0-0-2-2-2-2--|--3-3-3-3-2-2-2-2-3-|
F#|-2-2-2-2-2-2-2-2-2-2-2-2-2-2-2-2--|--2-2-2-2-2-2-2-2-2-|
C#|-0-0-0-0-0-0-0-0-0-0-0-0-0-0-0-0--|--0-0-0-0-0-0-0-0-0-|
G#|-0-0-0-0-0-0-0-0-0-0-0-0-0-0-0-0--|--0-0-0-0-0-0-0-0-0-|
D#|-0-0-0-0-0-0-0-0-0-0-0-0-0-0-0-0--|--0-0-0-0-0-0-0-0-0-|
                                 It's killing me, Jenny
Suggest correction
comments
print report bad tab
2 comments total.
+1 reply
BeeRyeBZRK 10 Apr 14, 2015 08:32 PM

They actually play it in Db, not D. So just transpose everything down a half step and you'll be good.

0 reply
Rasloyola 83 Jan 18, 2016 03:10 PM, edited at 08:12 pm

@BeeRyeBZRK Correct. Or you can transpose 2 down then slap a capo on 1st. Starting with a C makes it easier for beginners. It's actually D, they're playing on half down tuning by the way.

guest
You may want to rate the tab now too:
select rating
Wanna post a correction for this tab? Suggest correction