Oops, an error
Loading. Please wait.

House On Fire tab

64 views 1 this week
no commentswrite comment
1 2 3 4 5
3 more votes to show rating
add to favorites
×
Save as Personal and add changes to this tab that will be seen only by you. Learn more ›
×
You can save this tab as Personal to edit and correct it or add notes. All changes will be seen only by you. Learn more »
launch autoscroll
font size
0
reset
how to read this tab
guitar tuner
edit
Autoscroll
slow
fast
+/-
esc
set tempo
stop
Author
Difficulty
   Emaj7#5     Dmaj7#5
e|-11------11------9-----------|
B|----9----9-----7-------------|
G|------9--9---7---------------|
D|-----------------------------|
A|-----------------------------|
E|-----------------------------|

midnight coming back around the summer heat that wears me out
And the friends I’ve left behind are speechless in my sunlit mind

I have come to disbelieve exactly what I hear and see



   E/G#    A          G#m/B
e|-----4-------5------------(4)-|
B|--------------------9-----(4)-|
G|---4---4---6---6----8--or-(4)-|
D|-6-------7----------9---------|
A|-----------------0------------|
E|------------------------------|

is drifting through a firmament of cranes

is rising to my eyes behind the flames



e|-----------------------------|
B|----------7------------------|
G|----4-----6------8--\6-------|
D|-6--6---7-----7/9---\7-------|
A|-----------------------------|
E|-----------------------------|

as through the door to summer through the door to summer they pass away

to fade into the shadows of the night
through all the trains still moving in my mind
the gas fire flares into the light
And I am in this house on fire
but I was only watching clouds go by

through city gardens, leaving in the heat
and all the deals and trials on Ganton Street
the gas fire flares into the light
and I am in this house on fire
but I was only watching clouds go by



e|---------------------------------------------------------|
B|-------7--------------9-------7-------5-------7-------5--|
G|---6------6---6-----8---8---6---6---4---4---6---6---4----|
D|-5---5------5-----9-------7-------6-------7-------6------|
A|---------------------------------------------------------|
E|---------------------------------------------------------|

if there’s a stillness in your eyes the unreal city’s closing all its summer doors on you tonight yeah
won’t you step into the light the arcades that have blossomed just

and we were old before our time & we knew as we heard the fields just singing in the quiet yeah
that one day the band would strike a tune that carried us along



   Dmaj7#5                     
e|-9----------------------------|
B|---7--------------------------|
G|-----7------------------------|
D|------------------------------|
A|------------------------------|
E|------------------------------|

I picked her up at half past four the church hall in a haze 
and everyone was leaving and the moment passed away



   Cmaj7#5
e|-7----------------------------|
B|---5--------------------------|
G|-----5------------------------|
D|------------------------------|
A|------------------------------|
E|------------------------------|

unreal as I could ever really be
and ended up inside my heart a dream


 
e|----------------------------------|
B|-----5---7--5---------------------|
G|-----5---7--5----------9---------9|
D|---7---------------7/10--10-12--10|
A|-0---------------0----------------|
E|----------------------------------|

            
            
Suggest correction
Creating personal tab
Creating personal tab
You can edit any tab online and save it as your Personal.

You can edit, replace or remove any tab part or add personal notes – all changes will be seen only by you.

Personal tabs can be accessed anytime from any device, even offline.
Learn more »
Give kudos to tab author, rate the tab!
1 2 3 4 5
comments
print report bad tab
guest
You may want to rate the tab now too:
select rating
Wanna post a correction for this tab? Suggest correction