Oops, an error
Loading. Please wait.

Dumb Baby chords

4 views 3 this week
no commentswrite comment
1 2 3 4 5
3 more votes to show rating
add to favorites
×
Save as Personal and add changes to this tab that will be seen only by you. Learn more ›
×
You can save this tab as Personal to edit and correct it or add notes. All changes will be seen only by you. Learn more »
launch autoscroll
font size
0
reset
transpose
0
reset
display chords
guitar tuner
edit
Autoscroll
slow
fast
+/-
esc
set tempo
stop
Strumming
There is no strumming pattern for this song yet. and get +5 IQ
THE COATHANGERS - DUMB BABY

album version - NOSEBLEED WEEKEND
_________________________________
_________________________________

[INTRO]
C Bb Eb F
C Bb Eb F
C Bb Eb F
C Bb Eb F


[VERSE 1]
              C  Bb Eb F
Well you’re a spy
                C  Bb Eb F
You robbed me dry
          C           Bb             Eb
I let you into my own home in particular
F                C   Bb Eb F
And I don’t know why
          C   Bb Eb F
You got a look
            C     Bb Eb F
Are you the gnome
      C
But I know you’re up to something
Bb           Eb
Baby, hon it show
F                    C   Bb Eb F
And it’s starting to show


[CHORUS]
Ab                  G
Oh I still love you darling
              C
But you’re so dumb
Ab                    G
Looking like a little baby
                       C     F
Should be sucking your thumb


[INSTRUMENTAL]
C Bb Eb F
C Bb Eb F


[VERSE 2]
          C    Bb Eb F
So have a drink
              C    Bb Eb F
And have some more
      C
If it makes you better
Bb              Eb
Honey how’s the score
F                       C  Bb Eb F
When you’re out of the door


[CHORUS]
Ab                    G
Well I still love you darling
              C
But you’re so dumb
Ab                    G
Looking like a little baby
                       C
Should be sucking your thumb
Ab               G
I still love you darling
              C
But you’re so dumb
Ab                    G
Looking like a little baby
                       C
Should be sucking your thumb
          F
Should be sucking your thumb


[INSTRUMENTAL]
e|-8--8-8--------8--8-8-8------|-8--8--11-11-10-10--10-11--10-|
B|-8--8-8--------8--8-8-8--7-6-|-8--8--11-11-10-10--10-11--10-|
G|--------10-8-----------------|------------------------------|
D|-----------------------------|------------------------------|
A|-----------------------------|------------------------------|
E|-----------------------------|------------------------------|

e|-8--8-8------------------|--------------------------|-8--8-8-------8--8-8-----|-8-8--11-11--10-10--10-11-10|
B|-8--8-8------------------|--------------------------|-8--8-8-------8--8-8-----|-8-8--11-11--10-10--10-11-10|
G|--------10-8--7-7--7-7-7-|-8-8--8-8-8--10-10--11-10-|--------10-8---------7-6-|----------------------------|
D|-------------------------|--------------------------|-------------------------|----------------------------|
A|-------------------------|--------------------------|-------------------------|----------------------------|
E|-------------------------|--------------------------|-------------------------|----------------------------|

e|-8--8-8-------------------|------------------------11-10---|
B|-8--8-8-----------------7-|------------------------11-10---|
G|--------10-8--7-7--7-7----|-8-8--8-8-8--10-10-11-----------|
D|--------------------------|--------------------------------|
A|--------------------------|--------------------------------|
E|--------------------------|--------------------------------|


[CHORUS]
Ab                    G
Well I still love you darling
              C
But you’re so dumb
Ab                    G
Looking like a little baby
                       C
Should be sucking your thumb
Ab                    G
Yeah I still love you darling
              C
But you’re so dumb
Ab                    G
Looking like a little baby
                       C                                   F
Should be sucking your thumb, Should be sucking your thumb


[OUTRO]
C Bb Eb F
C Bb Eb F
C Bb Eb F
Suggest correction
Creating personal tab
Creating personal tab
You can edit any tab online and save it as your Personal.

You can edit, replace or remove any tab part or add personal notes – all changes will be seen only by you.

Personal tabs can be accessed anytime from any device, even offline.
Learn more »
Give kudos to tab author, rate the tab!
1 2 3 4 5
comments
print report bad tab
guest
You may want to rate the tab now too:
select rating
Wanna post a correction for this tab? Suggest correction