Oops, an error
Loading. Please wait.

Excuse Me Tab

67 views 3 this week
no commentswrite comment
1 2 3 4 5
2 more votes to show rating
add to favorites
launch autoscroll
font size
0
reset
how to read this tab
guitar tuner
Autoscroll
slow
fast
+/-
esc
set tempo
stop
Help us to improve Ultimate-Guitar.com Take our survey!
×
Author
Difficulty
intermediate
About this tab version
This song is very simple and easy to tab/learn. The only thing that keeps it from a "novice" level is the hammer-ons. Was this info helpful? Yes No
KEY: (h) = Hammer-on


[Intro] (0:00-0:16)(Repeat this again ONLY ONCE before 2nd verse: 1:03-1:11)

e|---------------------------------------------------------------------------|
B|---------------------------------------------------------------------------|
G|---------------------------------------------------------------------------|
D|----------------3---5(h)6---5----------------------------------------------|
A|--3---5(h)6---5-----------------3--5(h)6--5---5(h)6-5----------------------|
E|---------------------------------------------------------4--4-3------------|  (X2)

[Both Verses] (0:16-0:48) & (1:11-1:43)

e|---------------------------------------------------------------------------|
B|---------------------------------------------------------------------------|
G|---------------------------------------------------------------------------|
D|------------------3---5(h)6---5-------------------3---5(h)6---5------------|
A|--3---5(h)6---5-------------------3---5(h)6---5----------------------------|
E|---------------------------------------------------------------------------|

e|---------------------------------------------------------------------------|
B|---------------------------------------------------------------------------|
G|---------------------------------------------------------------------------|
D|-----------------3---5(h)6---5---------------------------------------------|
A|--3---5(h)6---5------------------3---5(h)6---5---5(h)6-5-------------------|
E|----------------------------------------------------------4--4-3-----------|  (X2)


[Chorus] (I use power chords, feel free to figure out something cooler)

e|---------------------------------------------------------------------------|
B|---------------------------------------------------------------------------|
G|---5-----------3-----------------------------------------------------------|
D|---5-----------3---------6----------5--------------------------------------|
A|---3--(x16)----1--(x16)--6----------5--------------------------------------|
E|-------------------------4--(x16)---3--(x16)-------------------------------|

[Bridge] 

GUITAR 1 (solo 1:58-2:14)

e|---------------------------------------------------------------------------|
B|---------------------------------------------------------------------------|
G|-5-5-5-5-5-5-----3-3-3-7--7--5-5-5-5-5-5-5-5-------------------------------|
D|-------------5-5-----------------------------5-5-8--8-6--6-5-5-5-5---------|
A|---------------------------------------------------------------------------|
E|---------------------------------------------------------------------------|

e|---------------------------------------------------------------------------|
B|---------------------------------------------------------------------------|
G|-5-5--5-5-5-------7--7-5-7--8-7--8-7--8-7--8-7--5--------------------------|
D|------------8-8-8----------------------------------------------------------|
A|---------------------------------------------------------------------------|
E|---------------------------------------------------------------------------|


GUITAR 2 (1:58-2:14) (background during solo)

e|---------------------------------------------------------------------------|
B|--11-9-8-9-8--(x4,meaning once every 2 measures)---------------------------|
G|---------------------------------------------------------------------------|
D|---------------------------------------------------------------------------|
A|---------------------------------------------------------------------------|
E|---------------------------------------------------------------------------|

outro: (2:30-2:49) 

e|---------------------------------------------------------------------------|
B|---------------------------------------------------------------------------|
G|---------------------------------------------------------------------------|
D|------------------3---5(h)6---5-------------------3---5(h)6---5------------|
A|--3---5(h)6---5-------------------3---5(h)6---5----------------------------|
E|---------------------------------------------------------------------------|

e|---------------------------------------------------------------------------|
B|---------------------------------------------------------------------------|
G|--------------------------------------5------------------------------------|
D|--------------------------------------5------------------------------------|
A|--3---5(h)6---5---5(h)6-5-------------3--(let it ring)---------------------|
E|----------------------------4--4-3-----------------------------------------|
Suggest correction
Give kudos to tab author, rate the tab!
1 2 3 4 5
comments
print report bad tab
guest
You may want to rate the tab now too:
select rating
Wanna post a correction for this tab? Suggest correction