Oops, an error
Loading. Please wait.

Watch Your Back tab

460 views 6 this week
no commentswrite comment
1 2 3 4 5
1 last vote to show rating
add to favorites
×
Save as Personal and add changes to this tab that will be seen only by you. Learn more ›
×
You can save this tab as Personal to edit and correct it or add notes. All changes will be seen only by you. Learn more »
launch autoscroll
font size
0
reset
how to read this tab
guitar tuner
edit
Autoscroll
slow
fast
+/-
esc
set tempo
stop
Author
[Intro]

e|-10-10-10-10-10-10-10-13-13-13-13-13-13-13-|
B|-10-10-10-10-10-10-10-13-13-13-13-13-13-13-|
G|-10-10-10-10-10-10-10-13-13-13-13-13-13-13-|
D|-------------------------------------------|  x4
A|-------------------------------------------|
E|-------------------------------------------|
          
e|-10\1/10-|
B|-10\1/10-|  strum on way down
G|-10\1/10-|
D|---------|  x2
A|---------|
E|---------|

e|------------------|
B|------------------|
G|-5-5-5-5-7-7-7-7--|
D|-5-5-5-5-7-7-7-7--| x2
A|-3-3-3-3-5-5-5-5--|
E|------------------|


[Verse]

e|-10\1/10-|
B|-10\1/10-|  strum on way down
G|-10\1/10-|
D|---------|  x2
A|---------|
E|---------|
I'm stuck here
No way out

e|------------------|
B|------------------|
G|-5-5-5-5-7-7-7-7--|
D|-5-5-5-5-7-7-7-7--| x2
A|-3-3-3-3-5-5-5-5--|
E|------------------|

Back you can never go
Back you can never go
Back you can never go
Back no no no

e|-10\1/10-|
B|-10\1/10-|  strum on way down
G|-10\1/10-|
D|---------|  x2
A|---------|
E|---------|
Not my plan
Not my house

e|------------------|
B|------------------|
G|-5-5-5-5-7-7-7-7--|
D|-5-5-5-5-7-7-7-7--| x2
A|-3-3-3-3-5-5-5-5--|
E|------------------|
Back you can never go
Back you can never go
Back you can never go
Back no no no

e|-10\1/10-|
B|-10\1/10-|  strum on way down
G|-10\1/10-|
D|---------|  x2
A|---------|
E|---------|
No yawning
Smile for me

e|-------------------------|
B|-------------------------|
G|-5-5-5-5-7-7-7-7-5-5-5-5-|
D|-5-5-5-5-7-7-7-7-5-5-5-5-|
A|-3-3-3-3-5-5-5-5-3-3-3-3-|
E|-------------------------|
Back you can never go
Back you can never go
Back you can never go


[Chorus]

e|-------------------|
B|-------------------|
G|-7-7-5-5-3-3-------|
D|-7-7-5-5-3-3-5-5-5-| x3
A|-5-5-3-3-1-1-5-5-5-|
E|-------------3-3-3-|
Said you'd do
What you said
I'll come back one day
What you said
What'd you do
I'll come back to you
What'd you say
What'd you do
I'll come back to you

e|-------------|
B|-------------|
G|-------------|
D|-3-3-3-5-5-5-| x2
A|-3-3-3-5-5-5-|
E|-1-1-1-3-3-3-|
I said you'll never go back
They said you'll never go back


[Verse]

e|-10\1/10-|
B|-10\1/10-|  strum on way down
G|-10\1/10-|
D|---------|  x2
A|---------|
E|---------|
Push pull stop
No warning

e|------------------|
B|------------------|
G|-5-5-5-5-7-7-7-7--|
D|-5-5-5-5-7-7-7-7--| x2
A|-3-3-3-3-5-5-5-5--|
E|------------------|

Back you can never go
Back you can never go
Back you can never go
Back no no no

e|-10\1/10-|
B|-10\1/10-|  strum on way down
G|-10\1/10-|
D|---------|  x2
A|---------|
E|---------|
This foreman
Has got hungry

e|------------------|
B|------------------|
G|-5-5-5-5-7-7-7-7--|
D|-5-5-5-5-7-7-7-7--| x2
A|-3-3-3-3-5-5-5-5--|
E|------------------|
Back you can never go
Back you can never go
Back you can never go
Back no no no

e|-10\1/10-|
B|-10\1/10-|  strum on way down
G|-10\1/10-|
D|---------|  x2
A|---------|
E|---------|
Yeah yeah yeah
Stop talking

e|-------------------------|
B|-------------------------|
G|-5-5-5-5-7-7-7-7-5-5-5-5-|
D|-5-5-5-5-7-7-7-7-5-5-5-5-|
A|-3-3-3-3-5-5-5-5-3-3-3-3-|
E|-------------------------|
Back you can never go
Back you can never go
Back you can never go


[Chorus]

e|-------------------|
B|-------------------|
G|-7-7-5-5-3-3-------|
D|-7-7-5-5-3-3-5-5-5-| x3
A|-5-5-3-3-1-1-5-5-5-|
E|-------------3-3-3-|
Said you'd do
What you said
I'll come back one day
What you said
What'd you do
I'll come back to you
What'd you say
What'd you do
I'll come back to you

e|-------------|
B|-------------|
G|-------------|
D|-3-3-3-5-5-5-| x2
A|-3-3-3-5-5-5-|
E|-1-1-1-3-3-3-|
I said you'll never go back
They said you'll never go back


[Solo]

e|-10-10-10-10-10-10-10-10-13-13-13-15-15-15-13-13-|
B|-10-10-10-10-10-10-10-10-13-13-13-15-15-15-13-13-|
G|-10-10-10-10-10-10-10-10-13-13-13-15-15-15-13-13-|
D|-------------------------------------------------| x2
A|-------------------------------------------------|
E|-------------------------------------------------|

e|-5-5-5-5-5-5-5-5-6-6-6-8-8-8-6-6-5-5-5-5-5-5-5-5-6-6-6-8-8-8-|
B|-5-5-5-5-5-5-5-5-6-6-6-8-8-8-6-6-5-5-5-5-5-5-5-5-6-6-6-8-8-8-|
G|-5-5-5-5-5-5-5-5-6-6-6-8-8-8-6-6-5-5-5-5-5-5-5-5-6-6-6-8-8-8-|
D|-------------------------------------------------------------|
A|-------------------------------------------------------------|
E|-------------------------------------------------------------|

e|-10-10-10-10-10-10-10-10-13-13-13-15-15-15-13-13-|
B|-10-10-10-10-10-10-10-10-13-13-13-15-15-15-13-13-|
G|-10-10-10-10-10-10-10-10-13-13-13-15-15-15-13-13-|
D|-------------------------------------------------|
A|-------------------------------------------------|
E|-------------------------------------------------|

e|-10-10-10-10-10-10-10-10-13-13-13-15-15-15-17-17-17-17-17-17-17-17-15-|
B|-10-10-10-10-10-10-10-10-13-13-13-15-15-15-17-17-17-17-17-17-17-17-15-|
G|-10-10-10-10-10-10-10-10-13-13-13-15-15-15-17-17-17-17-17-17-17-17-15-|
D|----------------------------------------------------------------------|
A|----------------------------------------------------------------------|
E|----------------------------------------------------------------------|

e|-17-17-17-17-17-17-17-17-15-17-17-17-17-17-17-17-17-17-15-13-13-13-13-|
B|-17-17-17-17-17-17-17-17-15-17-17-17-17-17-17-17-17-17-15-13-13-13-13-|
G|-17-17-17-17-17-17-17-17-15-17-17-17-17-17-17-17-17-17-15-13-13-13-13-|
D|----------------------------------------------------------------------|
A|----------------------------------------------------------------------|
E|----------------------------------------------------------------------|

e|---------------------------------------------------------------------------|
B|---------------------------------------------------------------------------|
G|-------------------------5-5-5-5---------5-5-5-5---------------------------|
D|-5-5-5-5-5-5-8-8-8-8-8-8-5-5-5-5-3-3-3-3-5-5-5-5-3-3-3-3-------------------|
A|-5-5-5-5-5-5-8-8-8-8-8-8-3-3-3-3-3-3-3-3-3-3-3-3-3-3-3-3-------------------|
E|-3-3-3-3-3-3-6-6-6-6-6-6---------1-1-1-1---------1-1-1-1-------------------|


[Chorus]

e|-------------------|
B|-------------------|
G|-7-7-5-5-3-3-------|
D|-7-7-5-5-3-3-5-5-5-| x3
A|-5-5-3-3-1-1-5-5-5-|
E|-------------3-3-3-|
Said you'd do
What you said
I'll come back one day
What you said
What'd you do
I'll come back to you
What'd you say
What'd you do
I'll come back to you

e|-------------|
B|-------------|
G|-------------|
D|-3-3-3-5-5-5-| x2
A|-3-3-3-5-5-5-|
E|-1-1-1-3-3-3-|
I said you'll never go back
They said you'll never go back



************************************

| /  Slide up
| \  Slide down

************************************
Suggest correction
Creating personal tab
Creating personal tab
You can edit any tab online and save it as your Personal.

You can edit, replace or remove any tab part or add personal notes – all changes will be seen only by you.

Personal tabs can be accessed anytime from any device, even offline.
Learn more »
Give kudos to tab author, rate the tab!
1 2 3 4 5
comments
print report bad tab
guest
You may want to rate the tab now too:
select rating
Wanna post a correction for this tab? Suggest correction