Oops, an error
Loading. Please wait.

Driftin Bass Tab

10 views 1 this week
no commentswrite comment
1 2 3 4 5
3 more votes to show rating
add to favorites
launch autoscroll
font size
0
reset
guitar tuner
Autoscroll
slow
fast
+/-
esc
set tempo
stop
Help us to improve Ultimate-Guitar.com Take our survey!
×
Author
Difficulty
novice
Tabbed by: 6METAL6BASSIST6
E-mail: petergriffinav@gmail.com

Tuning: EADG

G|----------------------------------------------------------------|
D|----------------------------------------------------------------|
A|7---------------------------------------------------------------|
E|--------------------------------5-------------------------------|

0:08

G|----------------------------------------------------------------|.
D|----------------------------------------------------------------|.
A|7---------------------------------------------------------------|.
E|----------------------------------------------------------------|.
                                                                   . x2
G|----------------------------------------------------------------|.
D|----------------------------------------------------------------|.
A|----------------------------------------------------------------|.
E|5---------------------------------------------------------------|.

0:39

G|----------------------------------------------------------------|
D|----------------------------------------------------------------|
A|----------------------------------------------------------------|
E|5---------------------------------------------------------------|

G|--------------------------------------------|
D|--------------------------------------------|
A|7-------------------------------------------|
E|--------------------------------------------|

0:53

G|----------------------------------------------------------------|.
D|----------------------------------------------------------------|.
A|7---------------------------------------------------------------|.
E|----------------------------------------------------------------|.
                                                                   . x2
G|----------------------------------------------------------------|.
D|----------------------------------------------------------------|.
A|----------------------------------------------------------------|.
E|5---------------------------------------------------------------|.

1:23

G|----------------------------------------------------------------|
D|----------------------------------------------------------------|
A|--------------------------------8-------------------------------|
E|----------------------------------------------------------------|

G|----------------------------------------------------------|
D|----------------------------------------------------------|
A|----7-----------------------------------------------------|
E|----------------------------------------------------------|

1:38

G|----------------------------------------------------------------|
D|----------------------------------------------------------------|
A|7-------------------------------7-------------------------------|
E|----------------------------------------------------------------|

G|----------------------------------------------------------------|
D|----------------------------------------------------------------|
A|----------------------------------------------------------------|
E|5-------------------------------5-------------------------------|

1:53

G|----------------------------------------------------------------|
D|----------------------------------------------------------------|
A|7---------------------------------------------------------------|
E|----------------------------------------------------------------|

G|----------------------------------------------------------------|
D|----------------------------------------------------------------|
A|----------------------------------------------------------------|
E|5---------------------------------------------------------------|

2:08

G|----------------------------------------------------------------|
D|----------------------------------------------------------------|
A|7-------------------------------7---------------7---------------|
E|----------------------------------------------------------------|

G|----------------------------------------------------------------|
D|----------------------------------------------------------------|
A|----------------------------------------------------------------|
E|5-------------------------------5-------------------------------|

2:23

G|----------------------------------------------------------------|
D|----------------------------------------------------------------|
A|--------------------------------8-------------------------------|
E|----------------------------------------------------------------|

G|------------------------------------------------|
D|------------------------------------------------|
A|--7---------------------------------------------|
E|------------------------------------------------|

2:37

G|----------------------------------------------------------------|
D|----------------------------------------------------------------|
A|------------------------------------------------8---------------|
E|5---------------------------------------------------------------|

G|----------------------------------------------------------------|
D|----------------------------------------------------------------|
A|------------------------------------7---------------------------|
E|----------------------------------------------------------------|
Suggest correction
Give kudos to tab author, rate the tab!
1 2 3 4 5
comments
print report bad tab
guest
You may want to rate the tab now too:
select rating
Wanna post a correction for this tab? Suggest correction