Oops, an error
Loading. Please wait.

Easy Street Bass Tab

151 views 18 this week
no commentswrite comment
1 2 3 4 5
3 more votes to show rating
add to favorites
launch autoscroll
font size
0
reset
guitar tuner
Autoscroll
slow
fast
+/-
esc
set tempo
stop
Help us to improve Ultimate-Guitar.com Take our survey!
×
Author
Difficulty
novice
really nice song to play on the bass...gutted for daryl :D

[Intro]
No bass 1 bar

[Verse]
G|-------------------------------------------------------------------------------------------------------|
D|--------------------------------------------------------------------------------------------0----------|
A|---3-3-3----3--3----3-3-----------5-5-5-----5-5----5-5------7-7--3-2-0--------------------------3-2-3--|
E|----------------------------------------------------------------------------------------1-0------------|

[Chorus] 
G|-----------------------------------------------------------------------------------------------------------|
D|----5-5-5--------------------------------------------------------------------------------------------------|
A|-------------------------------------------------3-3-3----3-3-3-3----3---3---5-5-5----5-5-5-5--5---5-------|
E|------------3-3-3-----3-3-3-3----3--3-------------------------------------------------------------------3--|

[Verse] 
G|-------------------------------------------------------------------------------------------------------|
D|--------------------------------------------------------------------------------------------0----------|
A|---3-3-3----3--3----3-3-----------5-5-5-----5-5----5-5------7-7--3-2-0--------------------------3-2-3--|
E|----------------------------------------------------------------------------------------1-0------------|

G|-------------------------------------------------------------------------------------------------|
D|-------------------------------------------------------------------------------------------------|
A|---3-3-3----3--3----3-3-----------5-5-5-----5-5----5-5------7----3----0------------3----2-----3--|
E|----------------------------------------------------------------------------1--------------------|

G|-------------------------------------------------------------------------------------------------|
D|-------------------------------------------------------------------------------------------------|
A|---3-3-3----3--3----3-3-----------5-5-5-----5-5----5-5------7----3----0------------3----2-----3--|
E|----------------------------------------------------------------------------1--------------------|

[Chorus] 
G|-----------------------------------------------------------------------------------------------------------|
D|----5-5-5--------------------------------------------------------------------------------------------------|
A|-------------------------------------------------3-3-3----3-3-3-3----3---3---5-5-5----5-5-5-5--5---5-------|
E|------------3-3-3-----3-3-3-3----3--3-------------------------------------------------------------------3--|

[Verse]
G|-------------------------------------------------------------------------------------------------------|
D|--------------------------------------------------------------------------------------------0----------|
A|---3-3-3----3--3----3-3-----------5-5-5-----5-5----5-5------7-7--3-2-0--------------------------3-2-3--|
E|----------------------------------------------------------------------------------------1-0------------|

G|-------------------------------------------------------------------------------------------------|
D|-------------------------------------------------------------------------------------------------|
A|---3-3-3----3--3----3-3-----------5-5-5-----5-5----5-5------7----3----0------------3----2-----3--|
E|----------------------------------------------------------------------------1--------------------|


[Outro] x2
G|----------------------------------------------|
D|----------------------------------0----------|
A|----7-7--3-2-0--------------------------3-2-3--|
E|------------------------1-0------------|
[end]
Suggest correction
Give kudos to tab author, rate the tab!
1 2 3 4 5
comments
print report bad tab
guest
You may want to rate the tab now too:
select rating
Wanna post a correction for this tab? Suggest correction