Oops, an error
Loading. Please wait.

Hate To See You Go Tab

version 1
version 1

Intro

Whole song

Interactive

10,343 views 3 this week
no commentswrite comment
1 2 3 4 5
excellent!
x 5
add to favorites
launch autoscroll
font size
0
reset
how to read this tab
guitar tuner
Autoscroll
slow
fast
+/-
esc
set tempo
stop
Help us to improve Ultimate-Guitar.com Take our survey!
×
Author
The Color Fred
Hate To See You Go
tabbed by athsmador- anothervivacarter@yahoo.com

corrections-
10/30/07---changed tuning to flat
1/31/08-- changed tab

this tab is 100% right becuz fred tabbed it for me
my original was just a little different but heres how he plays it 

the second tab of this song is a copy of mine pfft

intro/verse
eb|-------10------10------10-10-10--------10----10-------10--10--10-| 
Ab|-------8-------8-------8--8--8---------8-----8--------8---8---8--|
Gb|-----------------11-------------11--------------11---------------| 
Db|-10-10---10-10------0-0---0--0---------------------9-9--9---9----|
Ab|-----------------------------------------------------------------|
Eb|------------------------------------0-0---0-0--------------------|

	
eb|-------10------10------10-10-10--------10----10-------10--10--10-| 
Ab|-------8-------8-------8--8--8---------8-----8--------8---8---8--|
Gb|-----------------11-------------11--------------11---------------| 
Db|-10-10---10-10------0-0---0--0---------------------9-9--9---9----|
Ab|-----------------------------------------------------------------|
Eb|------------------------------------0-0---0-0--------------------|




chorus
eb|-----------------------------------|--------------------------------------| 
Ab|-----------------------------------|--------------------------------------|
Gb|-5-5-555----------7-7-777----------|-5-5-555-----------7777777777777777---| 
Db|-5-5-555-5-55-555-7-7-777-2-22-2222|-5-5-555--5-55-555-7777777777777777---|
Ab|-3-3-333-5-55-555-5-5-555-2-22-2222|-3-3-333--5-55-555-5555555555555555---|
Eb|---------3-33-333---------0-00-0000|----------3-33-333--------------------|


	
Suggest correction
comments
print report bad tab
guest
You may want to rate the tab now too:
select rating
Please do not post tabs as comments. Select "correction" instead!